Oops, an error
Loading. Please wait.

Dont Know Why Tab

version 2
version 2

Whole song

Interactive

2,252 views 1 this week
no commentswrite comment
1 2 3 4 5
please rate
add to favorites
launch autoscroll
font size
0
reset
how to read this tab
guitar tuner
Tab Pro tools
  • play this tab
  • loop segment
  • change instrument
  • show fretboard
  • metronome
×
Best way to learn
"Dont Know Why"
Autoscroll
slow
fast
+/-
esc
set tempo
stop
--------------------------------------------------------------------------
                             Don't Know why - Saves The day
--------------------------------------------------------------------------


Tabbed by: BBJB
Email: ajjahn@hotmail.com
Tuning: Standard


INTRO: 
E|------------------------|------------------------|
B|-----9---7----9---7h9---|-----9---7----9---7h9---|
G|-9-8---8--------8-------|---8---8--------8-------| x1
D|------------------------|------------------------|
A|------------------------|------------------------|
E|------------------------|-9~~~-------------------|



VERSE:
There must be somethign wrong with me,
I get so tired I can't sleep
The voices in my head are hauntin' my dreams
No matter how i try
to kill the thoughts inside
E|------------------|------------------|------------------|------------------|
B|---5--------------|-------4----------|---5--------------|-------4----------|
G|------------------|---2-------2------|-------4----------|---4-------4------| x4
D|-------7---6---4--|---------------4--|-----------6---4--|---------------4--|
A|-0---0---0---0----|-2---2---2---2----|-4---4---4---4----|-7---7---7---7----|
E|------------------|------------------|------------------|------------------|

I can not, I can not hide
E|------------------|------------------|
B|---5--------------|-------4----------|
G|------------------|---2-------2------| x1
D|-------7---6---4--|---------------4--|
A|-0---0---0---0----|-2---2---2---2----|
E|------------------|------------------|



INTRO: 
E|------------------------|------------------------|
B|-----9---7----9---7h9---|-----9---7----9---7h9---|
G|-9-8---8--------8-------|---8---8--------8-------| x1
D|------------------------|------------------------|
A|------------------------|------------------------|
E|------------------------|-9~~~-------------------|



VERSE:
The mirror staring back at me
the crackin lines along my face??
the times i try to get things stragiht, but could not
I know how hard i try
to keep myself alive
E|------------------|------------------|------------------|------------------|
B|---5--------------|-------4----------|---5--------------|-------4----------|
G|------------------|---2-------2------|-------4----------|---4-------4------| x4
D|-------7---6---4--|---------------4--|-----------6---4--|---------------4--|
A|-0---0---0---0----|-2---2---2---2----|-4---4---4---4----|-7---7---7---7----|
E|------------------|------------------|------------------|------------------|

I don't know, I don't know why..
E|------------------|------------------|
B|---5--------------|-------4----------|
G|------------------|---2-------2------| x1
D|-------7---6---4--|---------------4--|
A|-0---0---0---0----|-2---2---2---2----|
E|------------------|------------------|



BRIDGE:
Funny how...
When the darkest of nights falls down.
Worry that I will never see
Sun is shinning again.
E|---------------------------------------|
B|--5---------4--------2--------5--------|
G|--4---------4--------4--------4--------| x1
D|--x--x16----2--x8----x--x8----x--x4----|
A|--4------------------0--------3--------|
E|---------------------------------------|

The World Goes round,
What was up is again back down.
Wonder if I could stick around,
To feel the light of the day.
E|---------------------------------------|
B|--5---------4--------2--------5--------|
G|--4---------4--------4--------4--------| x1
D|--x--x16----2--x8----x--x8----x--x4----|
A|--4------------------0--------3--------|
E|---------------------------------------|

E|------------------|
B|--3---------------|
G|--4---------------|
D|--x--x8-----------| x1
A|--4---------------|
E|------------------|



VERSE:
Sometimes I feel like I am dying down here.
I feel a raging storm inside of my skin
The dial tone is there, but no one's calling
I feel the weight of time
Wonder when I will die?
E|------------------|------------------|------------------|------------------|
B|---5--------------|-------4----------|---5--------------|-------4----------|
G|------------------|---2-------2------|-------4----------|---4-------4------| x4
D|-------7---6---4--|---------------4--|-----------6---4--|---------------4--|
A|-0---0---0---0----|-2---2---2---2----|-4---4---4---4----|-7---7---7---7----|
E|------------------|------------------|------------------|------------------|

I don't know, I don't know why..
E|------------------|------------------|
B|---5--------------|-------4----------|
G|------------------|---2-------2------| x1
D|-------7---6---4--|---------------4--|
A|-0---0---0---0----|-2---2---2---2----|
E|------------------|------------------|



INTRO: 
E|------------------------|------------------------|
B|-----9---7----9---7h9---|-----9---7----9---7h9---|
G|-9-8---8--------8-------|---8---8--------8-------| x1
D|------------------------|------------------------|
A|------------------------|------------------------|
E|------------------------|-9~~~-------------------|
comments
We did not receive enough feedback on this tab! Please rate:
print report bad tab
1 2 3 4 5
I want to post or [tab]
guest
You may want to rate the tab now too:
select rating
Please do not post tabs as comments. Select "correction" instead!