Oops, an error
Loading. Please wait.

Driving In The Dark Bass Tab

version 1
version 1

Whole song

Interactive

63 views 1 this week
no commentswrite comment
1 2 3 4 5
please rate
add to favorites
launch autoscroll
font size
0
reset
guitar tuner
Tab Pro tools
  • play this tab
  • loop segment
  • change instrument
  • show fretboard
  • metronome
×
Best way to learn
"Driving In The Dark"
Autoscroll
slow
fast
+/-
esc
set tempo
stop
Difficulty
Tuning
intermediate
D# G# C# F# A# D#
Driving In The Dark
by Saves the Day
tebbed by Adam


Tune a half step down.  He does different things during each chorus but I only figured 
out the first one.
If you know the song, you know the order.  Here are the parts.

Verse:
-------------------------|
-----------3-------------|
--555555-3---555-3-------|
-------------------3333--|

Verse (sometimes he plays this):
--------------------------|
------------3-------------|
--3455555-3---555-3-------|
-------------------3333---|

Verse into Chorus
-----------------------------------------------|
-----------3-----------------5---333---3-------|
--555555-3---555-3----5---33---3-----6----5----|
-------------------33---3----------------------|

Chorus (He changes up the fill on Bb as the chorus repeats throughout the song)
--------------------------------------------------------------|
---------------3-4-55-----55-7-8-5---------5----33---3--------|
------------/5--------5------------5-4-333---3-3---3----6---5-|
-66-66-66-66------------3-------------------------------------|

Bridge (this is when the bass drops in during the trippy part)
-----------------------------------------------|
---3-4-5555---------------5---3333333----------|
-5----------5------333333---3------------------|
--------------3333-----------------------------|

I don't have the fast part at the end.  If you do, amend this.
comments
We did not receive enough feedback on this tab! Please rate:
print report bad tab
1 2 3 4 5
I want to post or [tab]
guest
You may want to rate the tab now too:
select rating
Please do not post tabs as comments. Select "correction" instead!