Oops, an error
Loading. Please wait.

Driving In The Dark Tab

version 1
version 1

Whole song

Interactive

5,263 views 3 this week
no commentswrite comment
1 2 3 4 5
excellent!
x 5
add to favorites
launch autoscroll
font size
0
reset
how to read this tab
guitar tuner
Autoscroll
slow
fast
+/-
esc
set tempo
stop
Help us to improve Ultimate-Guitar.com Take our survey!
×
Saves the Day - Driving in the Dark
 
  Intro - Guitar 1                             
e|-----5-------5-------4-------5---|       
B|---5---5---5---5---5---5---5---5-|
G|-4-------4-------4-------6-------|
D|---------------------------------|
A|---------------------------------|
E|---------------------------------|

  Verse - Guitar 1
e|-----5-------5-------4-------5---|       
B|---5---5---5---5---5---5---5---5-|
G|-4-------4-------4-------6-------|
D|---------------------------------|
A|---------------------------------|
E|---------------------------------|
                                   
  Guitar 2                                            
e|---------------------------------|    
B|---------------------------------|     
G|---------------------------------|
D|-7-7-7-7-7-7-7-7-6-6-6-6-4-4-4-4-|
A|---------------------------------|        
E|---------------------------------|        

e|-----------------|
B|-7-7--7---9-9--9-|
G|-7-7--7---7-7--7-|
D|-7-7--7---9-9--9-|
A|-5-5--5---7-7--7-|
E|-----------------|

  Guitar 1
e|-----5-------5-------4-------5---|       
B|---5---5---5---5---5---5---5---5-|
G|-4-------4-------4-------6-------| (x3)
D|---------------------------------|
A|---------------------------------|
E|---------------------------------|
                                     
  Guitar 2                                          
e|---------------------------------|    
B|---------------------------------|     
G|---------------------------------|
D|-7-7-7-7-7-7-7-7-6-6-6-6-4-4-4-4-|
A|---------------------------------|        
E|---------------------------------|         

e|-----------------|
B|-7-7--7---9-9--9-|
G|-7-7--7---7-7--7-|
D|-7-7--7---9-9--9-|
A|-5-5--5---7-7--7-|
E|-----------------|

  Chorus
e|-------------------------------------------------------------0-0--0-0-0-|
B|-------------------------------------------------3-3--3-3-3--0-0--0-0-0-|
G|-2-2--2-2-2--1-1--1-1-1--2-2--2-2-2--1-1--1-1-1--2-2--2-2-2--1-1--1-1-1-|
D|-2-2--2-2-2--2-2--2-2-2--2-2--2-2-2--2-2--2-2-2--0-0--0-0-0--2-2--2-2-2-|
A|-0-0--0-0-0--0-0--0-0-0--0-0--0-0-0--0-0--0-0-0--2-2--2-2-2--0-0--0-0-0-|
E|-------------------------2-2--2-2-2--2-2--2-2-2-------------------------|

  Verse - Guitar 1         
e|-----5-------5-------4-------5---|      
B|---5---5---5---5---5---5---5---5-|
G|-4-------4-------4-------6-------| (x5)
D|---------------------------------|
A|---------------------------------|
E|---------------------------------|                                              

  Guitar 2                                  
e|-/5----------------|
B|------2---/5--5--2-| 
G|-------------------| (x2)
D|-------------------|
A|-------------------|
E|-------------------| 
                                             
e|---------------------------------|    
B|---------------------------------|     
G|---------------------------------|
D|-7-7-7-7-7-7-7-7-6-6-6-6-4-4-4-4-|
A|---------------------------------|        
E|---------------------------------|        

e|-----------------|
B|-7-7--7---9-9--9-|
G|-7-7--7---7-7--7-|
D|-7-7--7---9-9--9-|
A|-5-5--5---7-7--7-|
E|-----------------|

  Chorus
e|-------------------------------------------------------------0-0--0-0-0-|
B|-------------------------------------------------3-3--3-3-3--0-0--0-0-0-|
G|-2-2--2-2-2--1-1--1-1-1--2-2--2-2-2--1-1--1-1-1--2-2--2-2-2--1-1--1-1-1-|
D|-2-2--2-2-2--2-2--2-2-2--2-2--2-2-2--2-2--2-2-2--0-0--0-0-0--2-2--2-2-2-|
A|-0-0--0-0-0--0-0--0-0-0--0-0--0-0-0--0-0--0-0-0--2-2--2-2-2--0-0--0-0-0-|
E|-------------------------2-2--2-2-2--2-2--2-2-2-------------------------|

e|-------------0-0--0-0-0-0-|
B|-3-3--3-3-3--0-0--0-2-0-0-|
G|-2-2--2-2-2--1-1--1-1-1-2-|
D|-0-0--0-0-0--2-2--2-2-2-2-|
A|-2-2--2-2-2--0-0--0-0-0-0-|
E|--------------------------|  

  Guitar 1 Solo
e|---9------9-----------9-----9--------|
B|-----10-------10--------9-------10---|    
G|--------9---9----9--------9---9----9-| 
D|-7------------------7----------------| 
A|-------------------------------------| 
E|-------------------------------------|

e|---9------9-----------9-----9--------|
B|-----10-------10--------9-------10---|
G|--------9---9----9--------9---9----9-|
D|-------------------------------------|
A|-9------------------9----------------|
E|-------------------------------------|      

e|-----9-------9-----------10------------7-------7----|
B|---7---7---7---7-----9--------9------5---5---5---5--|
G|-7-------7-------7-9---9----9---9--6-------6--------|
D|----------------------------------------------------|
A|----------------------------------------------------|
E|----------------------------------------------------|

|-------------------------------------------------------------------|
|-7-7-7-7-7-7-7-7-7-7-7-7-7-7-7-7--9-9-9-9-9-9-9-9--9-9-9-9-9-9-9-9-|
|-7-7-7-7-7-7-7-7-7-7-7-7-7-7-7-7--9-9-9-9-9-9-9-9--7-7-7-7-7-7-7-7-|
|-7-7-7-7-7-7-7-7-7-7-7-7-7-7-7-7--9-9-9-9-9-9-9-9--9-9-9-9-9-9-9-9-|
|-5-5-5-5-5-5-5-5-5-5-5-5-5-5-5-5--7-7-7-7-7-7-7-7--7-7-7-7-7-7-7-7-|
|-------------------------------------------------------------------|

  Chorus/Outro 
e|-------------------------------------------------------------0-0--0-0-0-|
B|-------------------------------------------------3-3--3-3-3--0-0--0-0-0-|
G|-2-2--2-2-2--1-1--1-1-1--2-2--2-2-2--1-1--1-1-1--2-2--2-2-2--1-1--1-1-1-|
D|-2-2--2-2-2--2-2--2-2-2--2-2--2-2-2--2-2--2-2-2--0-0--0-0-0--2-2--2-2-2-|
A|-0-0--0-0-0--0-0--0-0-0--0-0--0-0-0--0-0--0-0-0--2-2--2-2-2--0-0--0-0-0-|
E|-------------------------2-2--2-2-2--2-2--2-2-2-------------------------|

e|-------------0-0--0-0-0-0-|-5-5--5-5-5--5-5-5--5-4-|
B|-3-3--3-3-3--0-0--0-2-0-0-|-x-x--x-x-x--x-x-x--x-x-|
G|-2-2--2-2-2--1-1--1-1-1-2-|-6-6--6-6-6--6-6-6--6-6-|
D|-0-0--0-0-0--2-2--2-2-2-2-|-7-7--7-7-7--7-7-7--7-7-|
A|-2-2--2-2-2--0-0--0-0-0-0-|------------------------|
E|--------------------------|------------------------|
comments
print report bad tab
I want to post or [tab]
guest
You may want to rate the tab now too:
select rating
Please do not post tabs as comments. Select "correction" instead!