Oops, an error
Loading. Please wait.

Driving In The Dark Tab

version 2
version 2

Whole song

Interactive

118 views 1 this week
no commentswrite comment
1 2 3 4 5
please rate
add to favorites
launch autoscroll
font size
0
reset
how to read this tab
guitar tuner
Autoscroll
slow
fast
+/-
esc
set tempo
stop
Help us to improve Ultimate-Guitar.com Take our survey!
×
Difficulty
Tuning
intermediate
D# G# C# F# A# D#
Driving In The Dark 

Guitar 1:

Intro:
eb|-----6-------6---|-----5-------6---|
Bb|---6---6---6---6-|---6---6---6---6-|
F#|-5-------5-------|-5-------7-------|
Db|-----------------|-----------------|
Ab|-----------------|-----------------|
Eb|-----------------|-----------------| x2

        Dm7#5          Cm7      Gm7
eb|-----6-------6---|-----5-------6---|
Bb|---6---6---6---6-|---6---6---6---6-|
F#|-5-------5-------|-5-------7-------|
Db|-0---------------|-0-------5-------|
Ab|-----------------|-----------------|
Eb|-----------------|-----------------| x2

Verse 1:
        Dm7#5          Cm7      Gm7            D#maj7/A#       G6b5
eb|-----6-------6---|-----5-------6---|    |-10-10-10-10-|-5-5-5h6-------|
Bb|---6---6---6---6-|---6---6---6---6-|    |-8--8--8--8--|-6-6-6---6-----|
F#|-5-------5-------|-5-------7-------|    |-8--8--8--8--|-5-5-5-----5---|
Db|-0---------------|-0-------5-------|    |-8--8--8--8--|-7-7-7-------7-|
Ab|-----------------|-----------------|    |-------------|---------------|
Eb|-----------------|-----------------| x3 |-------------|---------------|

        Dm7#5          Cm7      Gm7            D#maj7/A#       F7/A
eb|-----6-------6---|-----5-------6---|    |-10-10-10-10-|-8-8----8-----|
Bb|---6---6---6---6-|---6---6---6---6-|    |-8--8--8--8--|-6-6--6---6---|
F#|-5-------5-------|-5-------7-------|    |-8--8--8--8--|-8-8--8-----8-|
Db|-0---------------|-0-------5-------|    |-8--8--8--8--|-7-7--7-------|
Ab|-----------------|-----------------|    |-------------|--------------|
Eb|-----------------|-----------------| x3 |-------------|--------------|


Chorus 1:
        Bb      Bbmaj7 Bb      Gm7     Dm/G   Gm7     Cm7         F7
eb|-----------|-----------|-----------|-----------|-3-3--3-3-|-1-1--1--1|
Bb|-3-3-3-3-3-|-3-3-3-3-3-|-3-3-3-3-3-|-3-3-3-3-3-|-4-4--4-4-|-1-1--1--1|
F#|-3-3-3-3-3-|-2-2-3-3-3-|-3-3-3-3-3-|-2-2-3-3-3-|-3-3--3-3-|-2-2--2--2|
Db|-3-3-3-3-3-|-3-3-3-3-3-|-3-3-3-3-3-|-3-3-3-3-3-|-5-5--5-5-|-1-1--1--1|
Ab|-1-1-1-1-1-|-1-1-1-1-1-|-x-x-x-x-x-|-x-x-x-x-x-|-3-3--3-3-|-3-3--3--3|
Eb|-----------|-----------|-3-3-3-3-3-|-3-3-3-3-3-|----------|-1-1--1--1|

        Bb      Bbmaj7 Bb      Gm7     Dm/G   Gm7     Cm7        G6b5
eb|-----------|-----------|-----------|-----------|-3-3--3-3-|-5h6------|
Bb|-3-3-3-3-3-|-3-3-3-3-3-|-3-3-3-3-3-|-3-3-3-3-3-|-4-4--4-4-|-6---6----|
F#|-3-3-3-3-3-|-2-2-3-3-3-|-3-3-3-3-3-|-2-2-3-3-3-|-3-3--3-3-|-5-----5--|
Db|-3-3-3-3-3-|-3-3-3-3-3-|-3-3-3-3-3-|-3-3-3-3-3-|-5-5--5-5-|-7-------7|
Ab|-1-1-1-1-1-|-1-1-1-1-1-|-x-x-x-x-x-|-x-x-x-x-x-|-3-3--3-3-|----------|
Eb|-----------|-----------|-3-3-3-3-3-|-3-3-3-3-3-|----------|----------|

Verse 2:
        Dm7#5          Cm7      Gm7            D#maj7/A#       G6b5
eb|-----6-------6---|-----5-------6---|    |-10-10-10-10-|-5-5-5h6-------|
Bb|---6---6---6---6-|---6---6---6---6-|    |-8--8--8--8--|-6-6-6---6-----|
F#|-5-------5-------|-5-------7-------|    |-8--8--8--8--|-5-5-5-----5---|
Db|-0---------------|-0-------5-------|    |-8--8--8--8--|-7-7-7-------7-|
Ab|-----------------|-----------------|    |-------------|---------------|
Eb|-----------------|-----------------| x3 |-------------|---------------|

Chorus 2:
        Bb      Bbmaj7 Bb      Gm7     Dm/G   Gm7     Cm7         F7
eb|-----------|-----------|-----------|-----------|-3-3--3-3-|-1-1--1--1|
Bb|-3-3-3-3-3-|-3-3-3-3-3-|-3-3-3-3-3-|-3-3-3-3-3-|-4-4--4-4-|-1-1--1--1|
F#|-3-3-3-3-3-|-2-2-3-3-3-|-3-3-3-3-3-|-2-2-3-3-3-|-3-3--3-3-|-2-2--2--2|
Db|-3-3-3-3-3-|-3-3-3-3-3-|-3-3-3-3-3-|-3-3-3-3-3-|-5-5--5-5-|-1-1--1--1|
Ab|-1-1-1-1-1-|-1-1-1-1-1-|-x-x-x-x-x-|-x-x-x-x-x-|-3-3--3-3-|-3-3--3--3|
Eb|-----------|-----------|-3-3-3-3-3-|-3-3-3-3-3-|----------|-1-1--1--1|

        Bb      Bbmaj7 Bb      Gm7     Dm/G   Gm7     Cm7         F7
eb|-----------|-----------|-----------|-----------|-3-3--3-3-|-1-1--1--1|
Bb|-3-3-3-3-3-|-3-3-3-3-3-|-3-3-3-3-3-|-3-3-3-3-3-|-4-4--4-4-|-1-1--1--1|
F#|-3-3-3-3-3-|-2-2-3-3-3-|-3-3-3-3-3-|-2-2-3-3-3-|-3-3--3-3-|-2-2--2--2|
Db|-3-3-3-3-3-|-3-3-3-3-3-|-3-3-3-3-3-|-3-3-3-3-3-|-5-5--5-5-|-1-1--1--1|
Ab|-1-1-1-1-1-|-1-1-1-1-1-|-x-x-x-x-x-|-x-x-x-x-x-|-3-3--3-3-|-3-3--3--3|
Eb|-----------|-----------|-3-3-3-3-3-|-3-3-3-3-3-|----------|-1-1--1--1|

       Cm7         F7
eb|-3-3--3-3-|-1-1--1--1|
Bb|-4-4--4-4-|-1-1--1--1|
F#|-3-3--3-3-|-2-2--2--2|
Db|-5-5--5-5-|-1-1--1--1|
Ab|-3-3--3-3-|-3-3--3--3|
Eb|----------|-1-1--1--1|

Bridge:
          A#           A#maj7    A#           Gm7           Dm/G   Gm7
eb|-----6-------6---|-----5-------6---|-----6-------6---|-----5-------6---|
Bb|-------6---6---6-|-------6---6---6-|-------6---6---6-|-------6---6---6-|
F#|---7-----7-------|---7-----7-------|---7-----7-------|---7-----7-------|
Db|-8---------------|-8---------------|-5---------------|-5---------------|
Ab|-----------------|-----------------|-----------------|-----------------|
Eb|-----------------|-----------------|-----------------|-----------------|

          A#           A#maj7    A#           Gm7           Dm/G   Gm7
eb|-----6-------6---|-----5-------6---|-----6-------6---|-----5-------6---|
Bb|-------6---6---6-|-------6---6---6-|-------6---6---6-|-------6---6---6-|
F#|---7-----7-------|---7-----7-------|---7-----7-------|---7-----7-------|
Db|-8---------------|-8---------------|-5---------------|-5---------------|
Ab|-----------------|-----------------|-----------------|-----------------|
Eb|-----------------|-----------------|-----------------|-----------------|
      
       D#maj7/A#             F7/A              D13/C
eb|-----10-------10---|-----8-------8---|-----8-------8---|
Bb|--------8---8----8-|-------6---6---6-|-------6---6---6-|
F#|---8------8--------|---8-----8-------|---7-----7-------|
Db|-8-----------------|-7---------------|-7---------------|
Ab|-------------------|-----------------|-----------------|
Eb|-------------------|-----------------|-----------------|

          G7            Cm7    C7sus4    F5/C   F7/C
eb|-----------------|-3-3-3-3-3-3-3-3-|-----------------|
Bb|-6-6-6-6-6-6-6-6-|-4-4-4-4-6-6-6-6-|-6-6-6-6-4-4-4-4-|
F#|-7-7-7-7-7-7-7-7-|-3-3-3-3-3-3-3-3-|-5-5-5-5-5-5-5-5-|
Db|-5-5-5-5-5-5-5-5-|-5-5-5-5-5-5-5-5-|-3-3-3-3-3-3-3-3-|
Ab|-----------------|-3-3-3-3-3-3-3-3-|-3-3-3-3-3-3-3-3-|
Eb|-----------------|-----------------|-----------------|

Chorus 3:
        Bb      Bbmaj7 Bb      Gm7     Dm/G   Gm7     Cm7         F7
eb|-----------|-----------|-----------|-----------|-3-3--3-3-|-1-1--1--1|
Bb|-3-3-3-3-3-|-3-3-3-3-3-|-3-3-3-3-3-|-3-3-3-3-3-|-4-4--4-4-|-1-1--1--1|
F#|-3-3-3-3-3-|-2-2-3-3-3-|-3-3-3-3-3-|-2-2-3-3-3-|-3-3--3-3-|-2-2--2--2|
Db|-3-3-3-3-3-|-3-3-3-3-3-|-3-3-3-3-3-|-3-3-3-3-3-|-5-5--5-5-|-1-1--1--1|
Ab|-1-1-1-1-1-|-1-1-1-1-1-|-x-x-x-x-x-|-x-x-x-x-x-|-3-3--3-3-|-3-3--3--3|
Eb|-----------|-----------|-3-3-3-3-3-|-3-3-3-3-3-|----------|-1-1--1--1|

        Bb      Bbmaj7 Bb      Gm7     Dm/G   Gm7     Cm7         F7
eb|-----------|-----------|-----------|-----------|-3-3--3-3-|-1-1--1--1|
Bb|-3-3-3-3-3-|-3-3-3-3-3-|-3-3-3-3-3-|-3-3-3-3-3-|-4-4--4-4-|-1-1--1--1|
F#|-3-3-3-3-3-|-2-2-3-3-3-|-3-3-3-3-3-|-2-2-3-3-3-|-3-3--3-3-|-2-2--2--2|
Db|-3-3-3-3-3-|-3-3-3-3-3-|-3-3-3-3-3-|-3-3-3-3-3-|-5-5--5-5-|-1-1--1--1|
Ab|-1-1-1-1-1-|-1-1-1-1-1-|-x-x-x-x-x-|-x-x-x-x-x-|-3-3--3-3-|-3-3--3--3|
Eb|-----------|-----------|-3-3-3-3-3-|-3-3-3-3-3-|----------|-1-1--1--1|

        Cm7        F7      Bb   Bbmaj7
eb|-3-3--3-3-|-1-1--1--1|---------------|
Bb|-4-4--4-4-|-1-1--1--1|-3--3---3--3---|
F#|-3-3--3-3-|-2-2--2--2|-3--3---2--2---|
Db|-5-5--5-5-|-1-1--1--1|-3--3---3--3---|
Ab|-3-3--3-3-|-3-3--3--3|-1--1---1--1---|
Eb|----------|-1-1--1--1|---------------|

Guitar 2:

Intro:
eb|-----------------|-----------------|
Bb|-----------------|---3-3-3-3-3-3-3-|
F#|-3-3-3-3-3-3-3-3-|-2-2-2-2-0-0-0-0-|
Db|-0-0-0-0-0-0-0-0-|-0-0-0-0-0-0-0-0-|
Ab|-----------------|-----------------|
Eb|-----------------|-----------------| x2

Verse:                          
                                                  Cm7         F7
eb|-----------------|-----------------|    eb|-3-3--3-3-|-1-1--1--1|
Bb|-----------------|-----------------|    Bb|-4-4--4-4-|-1-1--1--1|
F#|-3-3-3-3-3-3-3-3-|-2-2-2-2-0-0-0-0-|    F#|-3-3--3-3-|-2-2--2--2|
Db|-0-0-0-0-0-0-0-0-|-0-0-0-0-0-0-0-0-|    Db|-5-5--5-5-|-1-1--1--1|
Ab|-----------------|-----------------|    Ab|-3-3--3-3-|-3-3--3--3|
Eb|-----------------|-----------------| x3 Eb|----------|-1-1--1--1|

Chorus (play twice):
        Bb      Bbmaj7   Bb         Gm      Gmadd2  Gm
eb|-1-1-1-1-1-|-1-1--1-1-1----|-3-3--3-3-3-|-5-5--6-6-6-|
Bb|-3-3-3-3-3-|-3-3--3-3-3--3-|-3-3--3-3-3-|-3-3--3-3-3-|
F#|-3-3-3-3-3-|-2-2--3-3-3--3-|-3-3--3-3-3-|-3-3--3-3-3-|
Db|-3-3-3-3-3-|-3-3--3-3-3--4-|-5-5--5-5-5-|-5-5--5-5-5-|
Ab|-----------|---------------|------------|------------|
Eb|-----------|---------------|------------|------------|

       Cm7             F7      
eb|-3-3----3--3-|-1-1---------|
Bb|-4-4----4--4-|-1-1---------|
F#|-3-3----3--3-|-2-2---2h3-2-|
Db|-5-5----5--5-|-1-1---1---1-|
Ab|-3-3----3--3-|-3-3---3---3-|
Eb|-------------|-1-1---1---1-|

Post Chorus:
eb|-6-6-6-6---------|-1-1-1-1---------|-6-6-6-6---------|
Bb|-x-x-x-x-3-3-3-3-|-3-3-3-3-3-3-3-3-|-x-x-x-x-3-3-3-3-|
F#|-3-3-3-3-3-3-3-3-|-2-2-2-2-0-0-0-0-|-3-3-3-3-3-3-3-3-|
Db|-0-0-0-0-0-0-0-0-|-0-0-0-0-0-0-0-0-|-0-0-0-0-0-0-0-0-|
Ab|-----------------|-----------------|-----------------|
Eb|-----------------|-----------------|-----------------|

eb|-1-1-1-1---------|-----------------|-----------------|
Bb|-3-3-3-3-3-3-3-3-|-----------------|-----------------|
F#|-2-2-2-2-0-0-0-0-|-3-3-3-3-3-3-3-3-|-2-2-2-2-0-0-0-0-|
Db|-0-0-0-0-0-0-0-0-|-0-0-0-0-0-0-0-0-|-0-0-0-0-0-0-0-0-|
Ab|-----------------|-----------------|-----------------|
Eb|-----------------|-----------------|-----------------|

Verse 2:
                                                 Cm7      F7      F7sus4
eb|-----------------|-----------------|    eb|-3-3-3-3-|-------------------|
Bb|-----------------|-----------------|    Bb|-4-4-4-4-|-10-10-10/11-11-11-|
F#|-3-3-3-3-3-3-3-3-|-2-2-2-2-0-0-0-0-|    F#|-3-3-3-3-|-8--8--8-----8--8--|
Db|-0-0-0-0-0-0-0-0-|-0-0-0-0-0-0-0-0-|    Db|-5-5-5-5-|-10-10-10----------|
Ab|-----------------|-----------------|    Ab|-3-3-3-3-|-8--8--8-----------|
Eb|-----------------|-----------------| x3 Eb|---------|-------------------|

Chorus 2:
        Bb      Bbmaj7   Bb         Gm      Gmadd2  Gm
eb|-1-1-1-1-1-|-1-1--1-1-1----|-3-3--3-3-3-|-5-5--6-6-6-|
Bb|-3-3-3-3-3-|-3-3--3-3-3--3-|-3-3--3-3-3-|-3-3--3-3-3-|
F#|-3-3-3-3-3-|-2-2--3-3-3--3-|-3-3--3-3-3-|-3-3--3-3-3-|
Db|-3-3-3-3-3-|-3-3--3-3-3--4-|-5-5--5-5-5-|-5-5--5-5-5-|
Ab|-----------|---------------|------------|------------|
Eb|-----------|---------------|------------|------------|

       Cm7          F7       F7sus4
eb|-3-3----3--3-|-------------------|
Bb|-4-4----4--4-|-10-10-10/11-11-11-|
F#|-3-3----3--3-|-8--8--8-----8--8--|
Db|-5-5----5--5-|-10-10-10----------|
Ab|-3-3----3--3-|-8--8--8-----------|
Eb|-------------|-------------------| 

        Bb      Bbmaj7   Bb         Gm      Gmadd2  Gm
eb|-1-1-1-1-1-|-1-1--1-1-1----|-3-3--3-3-3-|-5-5--6-6-6-|
Bb|-3-3-3-3-3-|-3-3--3-3-3--3-|-3-3--3-3-3-|-3-3--3-3-3-|
F#|-3-3-3-3-3-|-2-2--3-3-3--3-|-3-3--3-3-3-|-3-3--3-3-3-|
Db|-3-3-3-3-3-|-3-3--3-3-3--4-|-5-5--5-5-5-|-5-5--5-5-5-|
Ab|-----------|---------------|------------|------------|
Eb|-----------|---------------|------------|------------|

       Cm7       F7     F7sus4       Cm7       F7     F7sus4
eb|-3-3-3-3-|-------------------|-3-3-3-3-|-------------------|
Bb|-4-4-4-4-|-10-10-10/11-11-11-|-4-4-4-4-|-10-10-10/11-11-11-|
F#|-3-3-3-3-|-8--8--8-----8--8--|-3-3-3-3-|-8--8--8-----8--8--|
Db|-5-5-5-5-|-10-10-10----------|-5-5-5-5-|-10-10-10----------|
Ab|-3-3-3-3-|-8--8--8-----------|-3-3-3-3-|-8--8--8-----------|
Eb|---------|-------------------|---------|-------------------|

Bridge:
            A#/F                Dm/F       A#/F        D#b5/G       A#/F
eb|---10-------10---------|----10-------10---------|----10-------10---------|
Bb|11----11----------11---|-11----10----------11---|-------11----------11---|
F#|---------10----10----10|----------10----10----10|-12-------10----10----10|
Db|-----------------------|------------------------|------------------------|
Ab|-----------------------|------------------------|------------------------|
Eb|-----------------------|------------------------|------------------------|

       Gsus2      A#/F                A#/F                    A#/F
eb|---10-------10---------|----10-------10---------|----10-------10---------|
Bb|------10----------11---|-11----11----------11---|-11----10----------11---|
F#|12-------10----10----10|----------10----10----10|----------10----10----10|
Db|-----------------------|------------------------|------------------------|
Ab|-----------------------|------------------------|------------------------|
Eb|-----------------------|------------------------|------------------------|

       D#b5/G       A#/F       Gsus2       A#/F              G5/D#
eb|---10-------10---------|----10-------10---------|-------10----------10---|
Bb|------11----------11---|-------10----------11---|----8-----8-----8-----8-|
F#|12-------10----10----10|-12-------10----10----10|-8-----------8----------|
Db|-----------------------|------------------------|------------------------|
Ab|-----------------------|------------------------|------------------------|
Eb|-----------------------|------------------------|------------------------|
    
             F7                       F6                    Gm
eb|---11-------11---------|----10-------10----------|-----------------|
Bb|------13----------13---|-------13----------13----|-----------------|
F#|10-------10----10----10|-10-------10----10----10-|-3-3-3-3-3-3-3-3-|
Db|-----------------------|-------------------------|-5-5-5-5-3-3-3-3-|
Ab|-----------------------|-------------------------|-5-5-5-5-5-5-5-5-|
Eb|-----------------------|-------------------------|-3-3-3-3-3-3-3-3-|

       Cm7        C7sus4               F7
eb|-3--3--3--3--6--6--6--6--|-------------------------|
Bb|-4--4--4--4--4--4--4--4--|-------------------------|
F#|-3--3--3--3--3--3--3--3--|-2--2--2--2--2--2--2--2--|
Db|-5--5--5--5--5--5--5--5--|-1--1--1--1--1--1--1--1--|
Ab|-3--3--3--3--3--3--3--3--|-3--3--3--3--3--3--3--3--|
Eb|-------------------------|-1--1--1--1--1--1--1--1--|

Chorus:
        Bb      Bbmaj7   Bb         Gm      Gmadd2  Gm
eb|-1-1-1-1-1-|-1-1--1-1-1----|-3-3--3-3-3-|-5-5--6-6-6-|
Bb|-3-3-3-3-3-|-3-3--3-3-3--3-|-3-3--3-3-3-|-3-3--3-3-3-|
F#|-3-3-3-3-3-|-2-2--3-3-3--3-|-3-3--3-3-3-|-3-3--3-3-3-|
Db|-3-3-3-3-3-|-3-3--3-3-3--4-|-5-5--5-5-5-|-5-5--5-5-5-|
Ab|-----------|---------------|------------|------------|
Eb|-----------|---------------|------------|------------|

       Cm7             F7     
eb|-3-3----3--3-|-1-1---------|
Bb|-4-4----4--4-|-1-1---------|
F#|-3-3----3--3-|-2-2---2h3-2-|
Db|-5-5----5--5-|-1-1---1---1-|
Ab|-3-3----3--3-|-3-3---3---3-|
Eb|-------------|-1-1---1---1-|

Outro:

eb|10-10-10-10-10-10-10-10|-10-10-10-10-10-10-10-10|-10-10-10-10-10-10-10-10|
Bb|11-11-11-11-11-11-11-11|-11-11-11-11-11-11-11-11|-11-11-11-11-11-11-11-11|
F#|10-10-10-10-10-10-10-10|-10-10-10-10-10-10-10-10|-10-10-10-10-10-10-10-10|
Db|-----------------------|------------------------|------------------------|
Ab|-----------------------|------------------------|------------------------|
Eb|-----------------------|------------------------|------------------------|

eb|10-10-10-10-10-10-10-10|-11-11-11-11-11-11-11-11|-8--8--8--8--8--8--8--8-|
Bb|11-11-11-11-11-11-11-11|-11-11-11-11-11-11-11-11|-10-10-10-10-10-10-10-10|
F#|10-10-10-10-10-10-10-10|-12-12-12-12-12-12-12-12|-8--8--8--8--8--8--8--8-|
Db|-----------------------|------------------------|------------------------|
Ab|-----------------------|------------------------|------------------------|
Eb|-----------------------|------------------------|------------------------|

eb|11-11-11-11-11-11-11-11|-8--8--8--8--8--8--8--8-|-10-10-10-10-10-10-10-10|
Bb|11-11-11-11-11-11-11-11|-10-10-10-10-10-10-10-10|-11-11-11-11-11-11-11-11|
F#|12-12-12-12-12-12-12-12|-8--8--8--8--8--8--8--8-|-10-10-10-10-10-10-10-10|
Db|-----------------------|------------------------|------------------------|
Ab|-----------------------|------------------------|------------------------|
Eb|-----------------------|------------------------|------------------------|

eb|-10-10-10-10-10----------|
Bb|-11-11-11-10-10----------|
F#|-10-10-10-10-10----------|
Db|-------------------------|
Ab|-------------------------|
Eb|-------------------------|
Suggest correction
Give kudos to tab author, rate the tab!
1 2 3 4 5
comments
print report bad tab
guest
You may want to rate the tab now too:
select rating
Wanna post a correction for this tab? Suggest correction