Oops, an error
Loading. Please wait.

Get Fucked Up Tab

version 2
version 2

Whole song

3,389 views 1 this week
no commentswrite comment
1 2 3 4 5
please rate
add to favorites
launch autoscroll
font size
0
reset
how to read this tab
guitar tuner
Autoscroll
slow
fast
+/-
esc
set tempo
stop
Help us to improve Ultimate-Guitar.com Take our survey!
×
Author
Saves The Day
Get Fucked Up
Under The Boards
12/13/07
sn.fifty@gmail.com

Eb Tuning

Instant favourite off the album. I present you a 98% accurate tab. You can see
them play this in the DVD, too.


Verse
eb|-----------------------------------------|
Bb|------7-77x----7-77x-----8-88x----8-88x--|
Gb|------7-77x----7-77x-----7-77x----7-77x--|
Db|------0-00x----0-00x-----0-00x----0-00x--|
Ab|-----------------------------------------|
Eb|-----------------------------------------|


Pre Chorus
eb|----5-----5----------5-----5----------|
Bb|-(7)--7-----7---7-(8)--8-----8--(8)---|
Gb|--------7-----7----------7-----7------|
Db|--------------------------------------|
Ab|--------------------------------------|
Eb|--------------------------------------|
Sometimes, (notes) omitted.


Chorus
eb|-----------------------------------------|
Bb|-----------------------------------------|
Gb|-----------------------------------------|
Db|-4b-^r----4b-^r-2--0-----------2-2h4-2---|
Ab|----------------------2----0-------------|
Eb|-----------------------------------------|
    |  |     |  |  |  |  |    |   | |   |
eb|-----------------------------------------|
Bb|-7--7-----8--8-----3--3----2---2-2h3-2---|
Gb|-7--7-----7--7-----2--2----2---2-2~------|
Db|-7--7-----8--8-----0--0----2~------------|
Ab|-5--5-----7--7-----2--2----0~------------|
Eb|-----------------------------------------| x2.5


Bridge
eb|------------------------------------------|
Bb|/14~---------14------14---14-14b15-15r~\--|
Gb|---------/11-----11-----11----------------|
Db|------------------------------------------|
Ab|------------------------------------------|
Eb|------------------------------------------|

eb|------------------------------------------|
Bb|------------------------------------------|
Gb|------------------------------------------|
Db|-4-4-0-0~--5-5-0-0~--7-7-0-0~--5-5-0-0~---|
Ab|------------------------------------------|
Eb|------------------------------------------| x3

eb|----14~--------------------|
Bb|-/15-------7~----8~--------|
Gb|-----------7~----7~--------|
Db|-----------7~----8~--------|
Ab|-----------5~----7~--------|
Eb|---------------------------|

eb|------------------------------------------|
Bb|-3----------------------2-2-2h3--2--------|
Gb|-2------2-2-2-2-2---2-2-2-2-2~------------|
Db|-0--0-0-0-0-0-0-0---2-2-2~----------------|
Ab|-2--2-2-2-2-2-2-2---0-0-0~----------------|
Eb|------------------------------------------|
       .<.<.<

Outro
eb|-----------------------------------------|
Bb|-----------------------------------------|
Gb|-----------------------------------------|
Db|-4b-^r----4b-^r-2--4b-^r----4b-^r-2------|
Ab|-----------------------------------------|
Eb|-----------------------------------------|
    |  |     |  |     |  |     |  |
eb|-----------------------------------------|
Bb|-7--7-----8--8-----7--7-----8--8---------|
Gb|-7--7-----7--7-----7--7-----7--7---------|
Db|-7--7-----8--8-----7--7-----8--8---------|
Ab|-5--5-----7--7-----5--5-----7--7---------|
Eb|-----------------------------------------|

eb|-----------------------------------|
Bb|-----------------------------------|
Gb|-----------------------------------|
Db|-4b-^r----4b-^r----2---0-----------|
Ab|-----------------------------------|
Eb|-----------------------------------|
    |  |     |  |     |   |
eb|-----------------------------------|
Bb|-7--7-----2--5-5h7-5---3~----------|
Gb|-7--7-----2--6-6h7-6---2~----------|
Db|-7--7-----2------------0~----------|
Ab|-5--5-----0------------2~----------|
Eb|-----------------------------------|
Suggest correction
What's this?
You can suggest a correction to this tab. Community and Mods will review your correction and vote to approve or reject it.
comments
We did not receive enough feedback on this tab! Please rate:
print report bad tab
1 2 3 4 5
guest
You may want to rate the tab now too:
select rating
Please do not post tabs as comments. Select "correction" instead!