Oops, an error
Loading. Please wait.

Getaway tab

617 views 1 this week
1 commentread comment
1 2 3 4 5
2 more votes to show rating
add to favorites
×
Save as Personal and add changes to this tab that will be seen only by you. Learn more ›
×
You can save this tab as Personal to edit and correct it or add notes. All changes will be seen only by you. Learn more »
launch autoscroll
font size
0
reset
how to read this tab
guitar tuner
edit
Autoscroll
slow
fast
+/-
esc
set tempo
stop
Author
Saves The Day
Getaway
Under The Boards
12/10/07
sn.fifty@gmail.com

Eb Tuning

Verse:
eb|--------------------------------------|
Bb|--------------------------------------|
Gb|--------------------------------------|
Db|------3-3-----------------------------|
Ab|0-0-0-----3-3-3--3-3-3-5-5-6-6-0------|
Eb|--------------------------------------|
 pm. . .     . . .  . . .         .

Pre-Chorus:
eb|--------------------------------------|
Bb|--------------------------------------|
Gb|--------------------------------------|
Db|------3-3-----0x---5-5-5-6-6-7-7x-----|
Ab|0-0-0-----3-3-0x---3-3-3-5-5-6-6x-----|
Eb|--------------0x----------------------|
 pm. . .

Chorus:
eb|--------------------------------------|
Bb|--------------------------------------|
Gb|-3------------------------------------|
Db|-2---3-3---5---6-6---6--7-------------|
Ab|-0---2-2---3---5-5---5--6---x4--x2----|
Eb|--------------------------------------|

Fills:
eb|------------|-------------------------|
Bb|------------|-------------------------|
Gb|-5-5-5b(6)--|-------7-h9p7------------|
Db|------------|--7-10--------10-7-------|
Ab|------------|-------------------------|
Eb|------------|-------------------------|

Bridge: plays verse with pick scratches and stuff

Outro with Chorus.
Suggest correction
Creating personal tab
Creating personal tab
You can edit any tab online and save it as your Personal.

You can edit, replace or remove any tab part or add personal notes – all changes will be seen only by you.

Personal tabs can be accessed anytime from any device, even offline.
Learn more »
Give kudos to tab author, rate the tab!
1 2 3 4 5
comments
print report bad tab
1 comment total.
+1 reply
Xero09 167 Mar 23, 2008 04:49 PM

This is all pretty much what I got, but here's my version that includes that crescendoing intro jam (which for some odd reason has been denied twice):

Song: Getaway
Album: Under The Boards
Tabber: Hector Rios
Tuning: 1/2 step down; Eb.


Guitar 1 Clean (Either or the note in the parenthesis):

eb|3------------------------------------------------|------------------|
Bb|--6-5-3---------5------10t--12t---15t---17t------|--------------3~--|
Gb|---------(4)--5-7---4--9t---10t---16t---14t------|2~~-----------5~--|
Db|----------7--------------------------------------|--------------4~--|
Ab|-------------------------------------------------|--------------5~--|
Eb|-------------------------------------------------|------------------|

Guitar 2 Clean; then distorted

|-------------------------------------------------|15b-15v-15-13-12-12-13-13-13p12~--------------------|
|3~-------3~----------5--------5--------5--------5|--------------------------------15-12-12-12h13p12---|
|5~-------5~----5-4-5----5-4-5----5-4-5----5-4-5--|--------------------------------------------------14|
|2~-------4~--------------------------------------|----------------------------------------------------|
|0~-------5~--------------------------------------|----------------------------------------------------|
|-------------------------------------------------|----------------------------------------------------|

Verse

|------------------------------|
|------------------------------|
|-----------------------1-1-2-2|
|-------3-3-------------0-0-1-1|x9
|-0-0-0-----3-3-3-3-3-3--------|
|------------------------------|
pm. . . . . . . . .

On the tenth time, end like:

|----------------------------------|
|----------------------------------|
|-----------------------1-1-1-1-2-2|
|-------3-3-------------0-0-1-1-1-1|
|-0-0-0-----3-3-3-3-3-3------------|
|----------------------------------|
pm. . . . . . . . .


Chorus (Those are the chords, hard to tab out the pattern.):

|-------------------|
|-------------------|
|-------------------|
|2-22-3-33-2-22-6677|
|0-00-2-22-3-33-5555|
|-------------------|


Repeat everything

On the background in the verse, a guitar plays and then:

|--------|------------------------|
|--------|------------------------|
|7benbup-|------------------------|
|9bendup-|--------12-13b-p12------|
|--------|--12-15------------15-12|
|--------|------------------------|

The chords in the breakdown are the exact same as the chorus chords. That should be all.
Email me at labeledloser@gmail.com for question/comments.

guest
You may want to rate the tab now too:
select rating
Wanna post a correction for this tab? Suggest correction