Oops, an error
Loading. Please wait.

Hold tab

version 3
version 3

Whole song

Interactive

19,507 views 6 this week
4 commentsread comments
1 2 3 4 5
x 6
add to favorites
×
Save as Personal and add changes to this tab that will be seen only by you. Learn more ›
×
You can save this tab as Personal to edit and correct it or add notes. All changes will be seen only by you. Learn more »
launch autoscroll
font size
0
reset
how to read this tab
guitar tuner
edit
Autoscroll
slow
fast
+/-
esc
set tempo
stop
Author
Difficulty
Verse:

e]---------------------------------------|
b]---------------------------------------|
g]---------------------------------------|
d]-4--33--44--4444-------3-3-6/8-6/8-9---|
a]-4--44--66--2222---4---4-4-6/8-6/8-9---|
e]-2-----------------2-------4/6-4/6-7---|

Oh well, you've got me under your spell
and I don't think that I'm kidding around.
I don't think I can forget you now.

Prechorus:

e]-----------------------------------------------------|
b]-----------------------------------------------------|
g]---------------------------------------------------44|
d]-4--33--44--4444--4--33--44--4444----4--33-44-6666-44|
a]-4--44--66--2222--4--44--66--2222----4—-44-66-6666-22|
e]-2----------------2------------------2--------4444---|

I once sat up on my roof and examined the planning of my town.
I saw the structured grid and pavement cutting through grass
and

Chorus:


e]----------------------------------------------|
b]----------------------------------------------|
g]-------6666-44444444--------6666/8888---------|
d]-4444--6666-44444444---4444-6666/8888---------|
a]-4444--4444-22222222---4444-4444/6666---------|
e]-2222------------------2222-------------------|

e]---------------------------------------|
b]---------------------------------------|
g]---------------------------------------|
d]--8888/9999--11------------------------|
a]—-8888/9999--11------------------------|
e]—-6666/7777--9-------------------------|

I remembered the cold of winter running up the legs of my pants.
I picked the nicest lawn and imagined the two of us
rolling around down along the ground.

Verse:
I saw myself touch your face and I noticed jets begin to race above our heads.
But I pinched my arm and remembered how much you hate me.

Prechorus:


e]-----------------------------------------------------|
b]-----------------------------------------------------|
g]---------------------------------------------------44|
d]-4--33--44--4444--4--33--44--4444----4--33-44-6666-44|
a]-4--44--66--2222--4--44--66--2222----4—-44-66-6666-22|
e]-2----------------2------------------2--------4444---|

But I pinched my arm and remembered how much you hate me.
I remembered the fact that I can't see what you need

Chorus:

and I'm too stupid to be aware of the beauty that you give this place
and how shitty this town would seem without you in it.
When you aren't around I let the shades fall down

Bridge:

e]---------------------------------------|
b]---------------------------------------|
g]------6666-44444444---------66666--4---|
d]-4444-6666-44444444-----444-66666--4---|
a]-4444-4444-22222222-----444-44444--2---|
e]-2222-------------------222------------|

to shut out all the sun's light and make myself feel all right.
What am I doing with my life?

Verse:

Oh well, you’ve got me under your spell. And I don’t think that I’m kidding around, 
think I can forget you now.
Remember that the only things we need sometimes

Prechorus (abridged version):
are chilly nights and warmer thighs

Outro:

e]---------------------2--------------------------------|
b]---------------------2--------------------------------|
g]--------6666--4444---3--------------------------------|
d]--4444--6666--4444---4--------------------------------|
a]--4444--4444--2222---4--------------------------------|
e]--2222---------------2--------------------------------|

cause there's nothing like being held.

            
            
Suggest correction
Creating personal tab
Creating personal tab
You can edit any tab online and save it as your Personal.

You can edit, replace or remove any tab part or add personal notes – all changes will be seen only by you.

Personal tabs can be accessed anytime from any device, even offline.
Learn more »
comments
print report bad tab
4 comments total. Showing first comments.
0 reply
murphd.daniel 41 Jul 21, 2006 01:19 AM

i forgot the last word, which is played with the last note, it's "sometimes."

0 reply
murphd.daniel 41 Jul 22, 2006 09:56 AM

Fixed Prechorus:

e]--------------------------------------------------|
b]--------------------------------------------------|
g]------------------------------------------------44|
d]-4--33--44--4444--4--33--44--4444----4--33-6666-44|
a]-4--44--66--2222--4--44--66--2222----4?-44-6666-22|
e]-2----------------2------------------2-----4444---|

tab is now 100% accurate

-1 reply
lil_hell_razor 10 Oct 16, 2007 03:14 PM

ok now do the acoustic version pretty pretty please :D:D

guest
You may want to rate the tab now too:
select rating
Wanna post a correction for this tab? Suggest correction