Oops, an error
Loading. Please wait.

Shattered bass

version 1
version 1

Whole song

Interactive

2,170 views 3 this week
2 commentsread comments
1 2 3 4 5
2 more votes to show rating
add to favorites
×
Save as Personal and add changes to this tab that will be seen only by you. Learn more ›
×
You can save this tab as Personal to edit and correct it or add notes. All changes will be seen only by you. Learn more »
launch autoscroll
font size
0
reset
guitar tuner
edit
Autoscroll
slow
fast
+/-
esc
set tempo
stop
Saves The Day
Shatterd
Sound The Alarm
Drop-D

Verse x15
G-----------------------------------|
D-----------------------------------|
A--------5---6---1/8----------------|
D---5-------------------------------|

Pre-Chorus
G----------------------------------|
D----------------------------------|
A----------------------------------|
D---555----333---------------------|

Chorus x2 []=only second time
G-------------------------------------------|
D-------------------------------------------|
A-111111-----------777777-------------------|
D---------333333-----------111111--[333]----|

Post Chorus
G-----------------------------------------------------------|
D-----------------------------------------------------------|
A-----------------------1111111-----------------------------|
D---5555555---3333333------------22222222----555555--333333-|

Verse x13
G-----------------------------------|
D-----------------------------------|
A--------5---6---1/8----------------|
D---5-------------------------------|

Pre-Chorus
G----------------------------------|
D----------------------------------|
A----------------------------------|
D---555----333---------------------|

Chorus x2 []=only second time
G-------------------------------------------|
D-------------------------------------------|
A-111111-----------777777-------------------|
D---------333333-----------111111--[333]----|

Post Chorus
G-----------------------------------------------------------|
D-----------------------------------------------------------|
A-----------------------1111111-----------------------------|
D---5555555---3333333------------2222222----555555--333333--|

Bridge
G----------------------------------------------------------------------------|
D----------------------------------------------------------------------------|
A----------------------------------------------------------------------------|
D-555--555---111--111---555--555---111--111---555--555---111--111---555--555-|

G------------R----------------------------|
D------------E----------------------------|
A------------S--11~------777777-----------|
D-111~--444--T------33~-----------1111111-|

Post Chorus
G---------------------------------------------------------------------------|
D---------------------------------------------------------------------------|
A-----------------------1111111------------------------------111111---------|
D---5555555---3333333------------2222222----555555--333333-----------222222-|

Outro
G--------------------------|
D--------------------------|
A---------------1~---------|
D--55~----3~---------------|

END

            
            
Suggest correction
Creating personal tab
Creating personal tab
You can edit any tab online and save it as your Personal.

You can edit, replace or remove any tab part or add personal notes – all changes will be seen only by you.

Personal tabs can be accessed anytime from any device, even offline.
Learn more »
Give kudos to tab author, rate the tab!
1 2 3 4 5
comments
print report bad tab
2 comments total.
0 reply
johnes 10 Sep 09, 2007 12:01 PM

sorry but this is really wrong.

0 reply
bassplayer27 312 Jan 28, 2009 01:30 PM

you have the basic notes but its missing alot of sick bass parts

guest
You may want to rate the tab now too:
select rating
Wanna post a correction for this tab? Suggest correction