Oops, an error
Loading. Please wait.

Third Engine tab

version 1
version 1

Whole song

6,424 views 6 this week
1 commentread comment
1 2 3 4 5
x 5
add to favorites
×
Save as Personal and add changes to this tab that will be seen only by you. Learn more ›
×
You can save this tab as Personal to edit and correct it or add notes. All changes will be seen only by you. Learn more »
launch autoscroll
font size
0
reset
how to read this tab
guitar tuner
edit
Autoscroll
slow
fast
+/-
esc
set tempo
stop
-------------------------------------------------------------------------------
                             Third Engine - Saves The Day
-------------------------------------------------------------------------------
Tabbed by: Alex Miskell
Email: shibbyx138@aim.com
Tuning: standard


Updated 1/4/09:
I changed the intro, so hopefully this is 100% accurate now


Intro
e|--------------------------------------|
B|--------------------------------------|
G|--------------------------------------|
D|-55-555-5--77-777-7--55-555-5-555555\4|
A|-77-777-7--55-555-5--33-333-3-333333\2|
E|--------------------------------------|
     
Verse:
e|-------------------------------------|
B|-------------------------------------|
G|-------------------------------------|
D|-----------77777777--5555555555555555|
A|-22222222--55555555--3333333333333333|
E|-00000000----------------------------|


Chorus
e|------------------------------------------------|
B|------------------------------------------------|
G|-----------------7/9-7------------7/9-7---------|
D|---------7-(x7)--x-x-x---5-(x7)---x-x-x--5-(x10)|
A|-5-(x10)-5-------5/7-5---3--------5/7-5--3------|
E|-3----------------------------------------------|


"Everything seemed a little easier..."
e|-------|
B|-------|
G|-------|
D|-5\4---|
A|-3\2-22|
E|-----00|

"I'm still thinking about you"
(with flanger)
e|-3p2-3p2-|
B|----3---3|
G|---------|
D|---------|
A|---------|
E|---------|

End with...
e|--------|
B|--------|
G|--------|
D|-5-4-2--|
A|-3-2-0-5|
E|-------3|


| /  slide up
| \  slide down
| h  hammer-on
| p  pull-off
| ~  vibrato
| +  harmonic
| x  Mute note
===============================================================================

            
            
Suggest correction
Creating personal tab
Creating personal tab
You can edit any tab online and save it as your Personal.

You can edit, replace or remove any tab part or add personal notes – all changes will be seen only by you.

Personal tabs can be accessed anytime from any device, even offline.
Learn more »
comments
print report bad tab
1 comment total.
0 reply
flatsteve 10 Apr 17, 2009 06:57 AM

Nice tab man sounds pretty much perfect.

guest
You may want to rate the tab now too:
select rating
Wanna post a correction for this tab? Suggest correction