Oops, an error
Loading. Please wait.

Third Engine bass

version 2
version 2

Whole song

407 views 1 this week
no commentswrite comment
1 2 3 4 5
3 more votes to show rating
add to favorites
×
Save as Personal and add changes to this tab that will be seen only by you. Learn more ›
×
You can save this tab as Personal to edit and correct it or add notes. All changes will be seen only by you. Learn more »
launch autoscroll
font size
0
reset
guitar tuner
edit
Autoscroll
slow
fast
+/-
esc
set tempo
stop
Third Engine
By Saves the Day
tabbed  by Adam
www.ebenrocks.8m.com

Verse (he throws some fifths in over the C)
G------------------------------|
D-----------(5)----------------|
A-----5>-3>--------------------|
E--0>--------------------------|

Chorus

1st and 3rd time 
G------------------------------|
D------------------------------|
A----5>-5h7p5-3>-5h7p5-3>-3-2-0|
E-3>---------------------------|

2nd and 4th time 
G-----------------------------------------------|
D----------44-55-77-55--------------------------|
A----55-77-------------5h7p5-3>-5h7p5-3>-3-2-0--|
E-3>--------------------------------------------|

2nd verse variation
G------------------------------------|
D--------4h5---5---------------------|
A--7>-5>-----5---3>-into-chorus-3-5--|
E------------------------------------|

Bridge/bass solo (may be wrong, fix it if it is)
G---------------------------------------------5-4-----|
D---------------------------------4h5p4------------5--|
A----------2p0-----------3p2h3-5>-------5-3333--------|
E-00000000-----2h3333333------------------------------|

second part of bridge
G------------------------------|
D----------------------5-------|
A-------5>-3>-------5>-3-------|
E-0>-3>-------0>-3>------------|

third part of bridge (after guitar break)
G-----------4-----------------|
D----9-------------5-----5----|
A--7---7--5---5--3---3-3---3--|
E-----------------------------|

Repeat Chorus


END ON
G---------
D---------
A-3-2-0---
E-------3-

            
            
Suggest correction
Creating personal tab
Creating personal tab
You can edit any tab online and save it as your Personal.

You can edit, replace or remove any tab part or add personal notes – all changes will be seen only by you.

Personal tabs can be accessed anytime from any device, even offline.
Learn more »
Give kudos to tab author, rate the tab!
1 2 3 4 5
comments
print report bad tab
guest
Wanna post a correction for this tab? Suggest correction