Oops, an error
Loading. Please wait.

Nostalgia Tab

45 views 1 this week
no commentswrite comment
1 2 3 4 5
3 more votes to show rating
add to favorites
launch autoscroll
font size
0
reset
how to read this tab
guitar tuner
Autoscroll
slow
fast
+/-
esc
set tempo
stop
Help us to improve Ultimate-Guitar.com Take our survey!
×
PRESTA ATENCIÓN A LA AFINACIÓN !!!!!

d|--------------------
A|--------------------
F|------0-----0-------   X 2
C|----5-----5-----5---
G|--7-----7-----7-----
D|--------------------

d|-------------------
A|-------------------
F|------0-----0------   x 2
C|----4-----4-----4--
G|--5-----5-----5----
D|-------------------

d|--------------------
A|--------------------
F|-------0-----0------    X 2
C|-----2-----2-----2--
G|---3-----3-----3----
D|--------------------


d|-----------------------
A|-----------------------
F|--------0------0-------
C|------9------9-------9-
G|---10-----10------10---
D|-----------------------

d|--------------------
A|--------------------
F|-------0-----0------
C|-----7-----7-----7--
G|---9-----9-----9----
D|--------------------

Sin querer hacer mas
demostré que fui capaz
de cumplir los sueños
y hacerlos realidad

Todo lo que llora
se giro y me dio placer
lo que me hizo sufrir
hoy me ayuda a seguir


   C   Em   D   G  Bm
D||-0-|-0-|-2-|-3-|-2-|
A||-1-|-0-|-3-|-3-|-3-|
F||-0-|-0-|-2-|-0-|-4-|
C||-2-|-2-|-0-|-0-|-4-|
G||-3-|-2-|---|-2-|-3-|
D||-X-|-0-|---|-3-|-X-|

     C           Em
Por ti morí, por ti sufrí,
    G                      D
con los años el destino nos separo
     C            Em
por ti llore, por ti sentí,
    G                   D
la nostalgia llora pero yo ya no

yo ya no....

d|--------------------
A|--------------------
F|------0-----0-------   X 2
C|----5-----5-----5---
G|--7-----7-----7-----
D|--------------------

d|-------------------
A|-------------------
F|------0-----0------   x 2
C|----4-----4-----4--
G|--5-----5-----5----
D|-------------------

d|--------------------
A|--------------------
F|-------0-----0------    X 2
C|-----2-----2-----2--
G|---3-----3-----3----
D|--------------------

d|-----------------------
A|-----------------------
F|--------0------0-------
C|------9------9-------9-
G|---10-----10------10---
D|-----------------------

d|--------------------
A|--------------------
F|-------0-----0------
C|-----7-----7-----7--
G|---9-----9-----9----
D|--------------------


El invierno llego
esta vez sin avisar
el recuerdo marcho
y su puerta he de cerrar
con el tiempo aprendí
lo importante que es vivir
sin pensar que el final
algún día llegara...

     C           Em
Por ti morí, por ti sufrí,
    G                      D
con los años el destino nos separo
     C            Em
por ti llore, por ti sentí,
    G                   D
la nostalgia llora pero yo ya no

Bm
  yo corrí corrí corrí
C
y camine y camine
G                  D
para ver..el polvo de mis pies

Bm
y yo rompí y me destroce esta vez
C                         G
para poder estar cerca de ti
          D
y al fin lo conseguí

lo conseguí...
yo conseguí..
yo conseguí volar cerca de ti
yo conseguí..
yo conseguí volar cerca de ti

d|--------------------
A|--------------------
F|------0-----0-------   X 2
C|----5-----5-----5---
G|--7-----7-----7-----
D|--------------------


d|-------------------
A|-------------------
F|------0-----0------   x 2
C|----4-----4-----4--
G|--5-----5-----5----
D|-------------------

d|--------------------
A|--------------------
F|-------0-----0------    X 2
C|-----2-----2-----2--
G|---3-----3-----3----
D|--------------------

d|-----------------------
A|-----------------------
F|--------0------0-------
C|------9------9-------9-
G|---10-----10------10---
D|-----------------------

d|--------------------
A|--------------------
F|-------0-----0------
C|-----7-----7-----7--
G|---9-----9-----9----
D|--------------------


G. Letran
Suggest correction
Give kudos to tab author, rate the tab!
1 2 3 4 5
comments
print report bad tab
guest
You may want to rate the tab now too:
select rating
Wanna post a correction for this tab? Suggest correction