Oops, an error
Loading. Please wait.

Verbenita Chords

53 views 3 this week
no commentswrite comment
1 2 3 4 5
3 more votes to show rating
add to favorites
launch autoscroll
font size
0
reset
transpose
0
reset
display chords
guitar tuner
Autoscroll
slow
fast
+/-
esc
set tempo
stop
Help us to improve Ultimate-Guitar.com Take our survey!
×
INTRO: (el intro también suena como un riff al final del verso)


e ----1---0---1---0---1---1---1---1-
b ---3---1---3---1---3---3---3---3--
g --2---0---2---0---2---2---2---2---
d -0---2---2---2---0---0---0---0----
a ----------------------------------
E ----------------------------------

verso:

Dm  C     Dm  C    REm F     A       REm
Ábreme la puerta verbenita que no soy ladrón
Dm    C    Dm  C    REm  F    A   REm
Por la llave vengo verbenita de tu corazón
Dm    C    Dm  C    REm  F    A   REm
Por la llave vengo verbenita de tu corazón

CORO: (BIS)
            AM#     F          AM# F      C  FA 
A que has venido, quien te ha llama---do verbeni--ta
            AM#     F          AM# F      C  FA 
A que has venido, quien te ha llama---do verbeni--ta
                     AM#           F  C       F 
Cuando mil veces te dije que no que no  contigo ya no
         A         Dm         F  A      Dm
Con otra si con vos no, con otra si con vos no


solo: 2 veces
     (es en charango pero se puede tocar asi en la guitarra)

e -17--17-15---15-17-17-17-15-20-17---17--17-15--17----
b --------------------------------------------------15-
g -----------------------------------------------------
d -----------------------------------------------------
a -----------------------------------------------------
E -----------------------------------------------------

REPITE INTRO

INTERMERIO: AM#-F -AM#-F -C -FA 
            LAM#-FAM-LAM#-FAM-DOM-FAM
            LAM#-FAM-DO-FAM-LAM-REm-FAM-LAM-REm

REPITE VERSO

REPITE CORO

               A         Dm         F  A      Dm
......con otra si con vos no, con otra si con vos no


Un saludo a todos mis amigos que les gusta esa música, y si quieren otras solo
escríbanme a mi correo, ese que esta arriba.
Suggest correction
Give kudos to tab author, rate the tab!
1 2 3 4 5
comments
print report bad tab
guest
You may want to rate the tab now too:
select rating
Wanna post a correction for this tab? Suggest correction