Oops, an error
Loading. Please wait.

Michael Jacksons Jacket intro tab

403 views 1 this week
1 commentread comment
1 2 3 4 5
3 more votes to show rating
add to favorites
×
Save as Personal and add changes to this tab that will be seen only by you. Learn more ›
×
You can save this tab as Personal to edit and correct it or add notes. All changes will be seen only by you. Learn more »
launch autoscroll
font size
0
reset
how to read this tab
guitar tuner
edit
Autoscroll
slow
fast
+/-
esc
set tempo
stop
Difficulty
Hey everybody. 
This is my first tab ever so please go easy on me.

Unfortunately, I've only figured out the intro-verse.


Standard tuning.
e|--------------------------------------------------------------|
b|--------------------------------------------------------------|
g|------3----------------------3--------5-5---------------------|
d|--------3-------0---------------3-----3-5---------------------|
a|-0--0-------------0------0--0-----------3---------------------|
e|-------------3------------------------------------------------|

I'll keep this up to date, so stay tuned.

            
            
Suggest correction
Creating personal tab
Creating personal tab
You can edit any tab online and save it as your Personal.

You can edit, replace or remove any tab part or add personal notes – all changes will be seen only by you.

Personal tabs can be accessed anytime from any device, even offline.
Learn more »
Give kudos to tab author, rate the tab!
1 2 3 4 5
comments
print report bad tab
1 comment total.
+1 reply
rico.herwig 76 Feb 19, 2014 08:53 AM

Actually, the intro is played like this:

e|--------------------------------------------------|
b|--------------------------------------------------|
g|-------2-------------0-------------2------5--5----|
d|------------------------------------------3--5----|
a|-0--0-----0------------------0--0-----0------3----|
e|---------------3--3-----3-------------------------|

guest
Wanna post a correction for this tab? Suggest correction