Oops, an error
Loading. Please wait.

Happy tab

754 views 3 this week
no commentswrite comment
1 2 3 4 5
3 more votes to show rating
add to favorites
×
Save as Personal and add changes to this tab that will be seen only by you. Learn more ›
×
You can save this tab as Personal to edit and correct it or add notes. All changes will be seen only by you. Learn more »
launch autoscroll
font size
0
reset
how to read this tab
guitar tuner
edit
Autoscroll
slow
fast
+/-
esc
set tempo
stop
Author
HAPPY---SAVING JANE
Here you go, this song is amazing;;;hope you like the tab...

IMPORTANT: the "~" means strum. listen to the song to figure out how you like to strum 
it...

Intro=drums

Verse 1:
E----------------------------------------------------------------|
B----------------------------------------------------------------|
G—11~------------------------------------------------------------|
D—11~--------------------------------------11~-------------------|
A—9~---------------------------------------11~-------------------|
E------------------------------------------9~--------------------|
  Filling up my empty days with red wine   Wonder what you think of me?

E--------------------------------------------------------------|
B--------------------------------------------------------------|
G--------------------------------------------------------------|
D-9~------------------------------------11~--------------------|
A-9~------------------------------------11~--------------------|
E-7~------------------------------------9~---------------------|
  Lying in the grass alone and wasted   Nothing's how it used to be

Verse 2:
E-----------------------------------------------------------------|
B-----------------------------------------------------------------|
G—11~-------------------------------------------------------------|
D—11~-----------------------------------------11~-----------------|
A—9~------------------------------------------11~-----------------|
E---------------------------------------------9~------------------|
  I wanna be the first to call and tell you   Yesterday I heard the news

E-------------------------------------------------------------|
B-------------------------------------------------------------|
G-------------------------------------------------------------|
D-9~------------------------------------11~-------------------|
A-9~------------------------------------11~-------------------|
E-7~------------------------------------9~--------------------|
  I hear you oughtta be congratulated   So I guess that's what I'll do

Chorus:
E------------------------------------------------|
B------------------------------------------------|
G--------11~-------------------------------------|
D--------11~------------------------11~----------|
A--------9~-------------------------11~----------|
E-----------------------------------9~-----------|
  I'm so happy for you      I could cry
E-------------------------------------------------------|
B-------------------------------------------------------|
G-------------------------------------------------------|
D-----------9~---------------------11~------------------|
A-----------9~---------------------11~------------------|
E-----------7~---------------------9~-------------------|
  Yeah, I'm so elated     Cross my heart and hope to die

E----------------------------------------------------|
B----------------------------------------------------|
G--------8~------------------------------------------|
D--------8~--------------11~-----------9~------------|
A--------6~--------------11~-----------9~------------|
E------------------------9~------------7~------------|
 I don't think about you every night   Before I close my eyes

E-----------------------------------------------------|
B-----------------------------------------------------|
G--------------------------------------11~------------|
D----------6~--------8---9-------------11~------------|
A----------6~--------8---9-------------9~-------------|
E----------4~--------6---7----------------------------|
    I'm so happy for you baby, I could cry.

Verse 3:
E-----------------------------------------------------------------|
B-----------------------------------------------------------------|
G—11~-------------------------------------------------------------|
D—11~---------------------------------------11~-------------------|
A—9~----------------------------------------11~-------------------|
E-------------------------------------------9~--------------------|
  Listen to the sound of my head pounding   Wish that it was make-believe

E----------------------------------------------------------------|
B----------------------------------------------------------------|
G----------------------------------------------------------------|
D-9~-------------------------------------11~---------------------|
A-9~-------------------------------------11~---------------------|
E-7~-------------------------------------9~----------------------|
  Praying for the skies to open up and   Wash away your memory

Verse 4:
E----------------------------------------------------------------|
B----------------------------------------------------------------|
G—11~------------------------------------------------------------|
D—11~---------------------------------------11~------------------|
A—9~----------------------------------------11~------------------|
E-------------------------------------------9~-------------------|
  I can walk around with a pretty face on   Even when I'm black and blue

E----------------------------------------------------------------|
B----------------------------------------------------------------|
G----------------------------------------------------------------|
D-9~---------------------------------------11~-------------------|
A-9~---------------------------------------11~-------------------|
E-7~---------------------------------------9~--------------------|
  What's the point in telling everybody    I'm not over you.


---CHORUS---

Bridge:
E----------------------------------------------------------|
B----------------------------------------------------------|
G-8~-------------------------------------------------------|
D-8~------------11~-------------9-9-9-8-3-3-9-9-9-8-3-3----|
A-6~------------11~-------------9-9-9-8-3-3-9-9-9-8-3-3----|
E---------------9~--------------7-7-7-6-2-2-7-7-7-6-2-2----|
  Cry about the love we used to have
E----------------------------------------------------------|
B----------------------------------------------------------|
G-8~-------------------------------------------------------|
D-8~---------------11~----------9-9-9-8-3-3-9-9-9-8-3-3----|
A-6~---------------11~----------9-9-9-8-3-3-9-9-9-8-3-3----|
E------------------9~-----------7-7-7-6-2-2-7-7-7-6-2-2----|
  Cry that I won't ever get you back

Riff:
E-------------------------------------------------|\-- /
B----------------------------------------------------- / \
G--11-11-11-11------------------------------------|  \ /x2
D--11-11-11-11-11-11-11-11-9-9-9-9-11-11-11-------| -- /
A--9--9--9--9--11-11-11-11-9-9-9-9-11-11-11-------|--- /
E--------------9--9--9--9--7-7-7-7-9--9--9------------ /

E----------------------------------------------------------------|
B----------------------------------------------------------------|
G-11~------------------------------------------------------------|
D—11~--------------------------------------11~-------------------|
A—9~---------------------------------------11~-------------------|
E------------------------------------------9~--------------------|
  Filling up my empty days with red wine   Wonder what you think of me?

End Chorus:
E----------------------------------------------|
B----------------------------------------------|
G--------11~-----------------------------------|
D--------11~------------------------11~--------|
A--------9~-------------------------11~--------|
E-----------------------------------9~---------|
  I'm so happy for you      I could cry
E----------------------------------------------|
B----------------------------------------------|
G----------------------------------------------|
D-----------9~---------------------11~---------|
A-----------9~---------------------11~---------|
E-----------7~---------------------9~----------|
  Yeah, I'm so elated     Cross my heart and hope to die
E----------------------------------------------|
B----------------------------------------------|
G------11~-------------------------------------|
D------11~----------------11~------------------|
A------9~-----------------11~------------------|
E-------------------------9~-------------------|
       I'm so happy for you
E----------------------------------------------|
B----------------------------------------------|
G----------------------------------------------|
D--------9~---------------11~------------------|
A--------9~---------------11~------------------|
E--------7~---------------9~-------------------|
         So, so happy for you
E----------------------------------------------------|
B----------------------------------------------------|
G--------8~------------------------------------------|
D--------8~--------------11~-----------9~------------|
A--------6~--------------11~-----------9~------------|
E------------------------9~------------7~------------|
 I don't think about you every night   Before I close my eyes

E------------------------------------------|
B------------------------------------------|
G-----------------------------------8------|
D-------6~--------8---9-------------8------|
A-------6~--------8---9-------------6------|
E-------4~--------6---7--------------------|
 I'm so happy for you baby, I could cry.

END

NOTE FROM THE WRITER OF THE TAB: "....I Wish every second of every day i could be Ally,
she has him and i get to watch the two of them happier than ever, but it does make me
that he is so happy, because i love him so much and all i want for him is to be really 
even if it means i get to miss him and he won't ever be mine again...."

            
            
Suggest correction
Creating personal tab
Creating personal tab
You can edit any tab online and save it as your Personal.

You can edit, replace or remove any tab part or add personal notes – all changes will be seen only by you.

Personal tabs can be accessed anytime from any device, even offline.
Learn more »
Give kudos to tab author, rate the tab!
1 2 3 4 5
comments
print report bad tab
guest
You may want to rate the tab now too:
select rating
Wanna post a correction for this tab? Suggest correction