Oops, an error
Loading. Please wait.

Street Corner Talkin Tab

2,057 views 1 this week
no commentswrite comment
1 2 3 4 5
please rate
add to favorites
launch autoscroll
font size
0
reset
how to read this tab
guitar tuner
Autoscroll
slow
fast
+/-
esc
set tempo
stop
Help us to improve Ultimate-Guitar.com Take our survey!
×
Author
"Street Corner Talkin'"
Savoy Brown

4-4 time

Key:
H = hammer-on
P = pull-off
~ = elongate / let ring
/ = slide up
\ = slide down
v = vibrato
b = bend

Awesome, simple tune you can never get out of yer head. I tried my best to get the tempo 
but the solo isn't all in the right timing.

I didn't have time to tab the last two solos, but I'll tab 'em whenever I get the chance to.

When I wrote "Part A" in the Intro, I mean that one measure itself, NOT all four times.

Enjoi.

Intro
(Part A)
E|-------------------------------|
B|-------------------------------|
G|-------------------------------|  X4
D|------------0--2~--------------|
A|-0H2P0H2P0-----------0-1-0-----|
E|----------0------0-3-------3-0-|

Verse 1
Part A X2
A                 C             E
Came to the city, left my happy home
Part A X2
A                 C             E
Came to the city, left my happy home
Part A X2
A                      C                  E
But I didn't do right, learned my lessons wrong
  Part A                           Part B
E|-------------------------------||-------------------------|
B|-------------------------------||-------------------------|
G|-------------------------------||----0--0-----------------|
D|------------0--2~--------------||-0-2-----2~--------------|
A|-0H2P0H2P0-----------0-1-0-----||---------------0-1-0-----|
E|----------0------0-3-------3-0-||-----------0-3-------3-0-|

Chorus
A                      C                     E
Street Corner Talkin', wonder what I'm gonna do
Part A X2
A                      C                     E
Street Corner Talkin', wonder what I'm gonna do
Part A, Part B
A                       C                    E
If you can't get a job, council will take of you
Part A, Part B

Solo
E|-----10------12v\-|--------------|
B|-11b---10b\8------|-10H11P10P8v\-|
G|------------------|--------------|
D|------------------|--------------|
A|------------------|--------------|
E|------------------|--------------|

E|-10--10--10/12~-10---------------10------------------|
B|------------------12-10-8-8-10/12--10H12P10-8H10H8v\-|
G|-------------------------9---------------------------|
D|-----------------------------------------------------|
A|-----------------------------------------------------|
E|-----------------------------------------------------|

E|-19-17----15b-|-19P17~--15-17~-15P12-|-------------------------------12-|
B|-------17b----|-------17-------------|-10H11P10P8-10H11P10P8-10P8~-8----|
G|--------------|----------------------|------------------------------9---|
D|--------------|----------------------|----------------------------------|
A|--------------|----------------------|----------------------------------|
E|--------------|----------------------|----------------------------------|
Part A, Part B

Verse 2
A                            C                  E
It's the same what a shame, no matter where you go
Part A X2
A                            C                  E
It's the same what a shame, no matter where you go
Part A, Part B
A                          C                       E
People wonder what to do, too much time for me and you
Part A, Part B

Solo B
?

Chorus
A                      C                     E
Street Corner Talkin', wonder what I'm gonna do
A                      C                     E
Street Corner Talkin', wonder what I'm gonna do
A                       C                    E
If you can't get a job, council will take of you

Solo C (fade out)
?

(Part B fade out)
Suggest correction
What's this?
You can suggest a correction to this tab. Community and Mods will review your correction and vote to approve or reject it.
comments
We did not receive enough feedback on this tab! Please rate:
print report bad tab
1 2 3 4 5
guest
You may want to rate the tab now too:
select rating
Please do not post tabs as comments. Select "correction" instead!