Oops, an error
Loading. Please wait.

Red Memories chords

193 views 1 this week
no commentswrite comment
1 2 3 4 5
3 more votes to show rating
add to favorites
×
Save as Personal and add changes to this tab that will be seen only by you. Learn more ›
×
You can save this tab as Personal to edit and correct it or add notes. All changes will be seen only by you. Learn more »
launch autoscroll
font size
0
reset
transpose
0
reset
simplify chords
display chords
guitar tuner
edit
Autoscroll
slow
fast
+/-
esc
set tempo
stop
Author
Difficulty
Strumming
There is no strumming pattern for this song yet. and get +5 IQ
[Intro]
    Am     G      Fmaj7               Am      G      Fmaj7
e|---------------------------------|----------------------------------|
B|-----1h0--0---------1------------|------1h0--0---------1------------|
G|-----2h0--0---0-----2-----2---0--|------2h0--0---0-----2-----2---0--|
D|----------------3-3-----3--------|-----------------3-3-----3--------|
A|--0------------------------------|--0-0-----------------------------|
E|---------3-----------------------|----------3-----------------------| 
  
[Verse 1]
    Am     G      Fmaj7               Am      G      Fmaj7
e|---------------------------------|----------------------------------|
B|-----1h0--0---------1------------|------1h0--0---------1------------|
G|-----2h0--0---0-----2-----2---0--|------2h0--0---0-----2-----2---0--|
D|----------------3-----3-3---3----|-----------------3-----3-3---3----|
A|--0------------------------------|--0-0-----------------------------|
E|---------3-----------------------|----------3-----------------------|

Am    G      Fmaj7
Never one to follow
Am    G      Fmaj7
Never one to lead
Am    G      Fmaj7
Never one to swallow
   Am    G   Fmaj7
My pride and leave

Am      G          Fmaj7
And the scar on my back
Am       G       Fmaj7
Tells me I'm not well
Am      G          Fmaj7
And the man in the mirror
Am G           Fmaj7
He tells me as well

Am        G           Fmaj7
Something wrong in my eyes
Am             G            Fmaj7
'Cause I don’t see what you see
Am       G            Fmaj7
There is blood in the river
Am  G           Fmaj7
And fire in the sea

Mmm...

[Instrumental]
    Am     G      Fmaj7                   Am      G      Fmaj7
e|------0----3----0-----3-------3h5--0--|------0-----3----0------3------3h5--0--|
B|------1----0----1-----1-------1----0--|------1-----0----1------1------1----0--|
G|----2---------------------------------|----2---2------0-----------------------|
D|----------------3---3----3--3---------|-----------------3--3--3--3--3---------|
A|--0-----------------------------------|--0------------------------------------|
E|---------3----------------------------|----------3----------------------------|

[Verse 2]
Am      G         Fmaj7
If it’s all in my head
Am         G        Fmaj7
And when I die I’ll wake up
Am             G    Fmaj7
'Cause I don’t fear death, I'll just
Am      G            Fmaj7
Pick up where I left off

Am       G     Fmaj7
When the world crumbles
Am      G     Fmaj7
And the walls fall
Am     G        Fmaj7
I will die with laughter, 'cause it
Am     G       Fmaj7
Made a fool of us all

Am        G          Fmaj7
So take a look in my head
Am      G        Fmaj7
Tell me what you see
Am      G           Fmaj7
Cut out all the red memories, they are
Am  G         Fmaj7
The ones that haunt me

Am        G          Fmaj7
So take a look in my head
Am      G       Fmaj7
Cut out all you see
Am      G           Fmaj7
Cut out all the red memories, they are
Am  G         Fmaj7
The ones that haunt me

            
            
Suggest correction
Creating personal tab
Creating personal tab
You can edit any tab online and save it as your Personal.

You can edit, replace or remove any tab part or add personal notes – all changes will be seen only by you.

Personal tabs can be accessed anytime from any device, even offline.
Learn more »
Give kudos to tab author, rate the tab!
1 2 3 4 5
comments
print report bad tab
guest
You may want to rate the tab now too:
select rating
Wanna post a correction for this tab? Suggest correction