Oops, an error
Loading. Please wait.

Stone Chords

100 views 1 this week
no commentswrite comment
1 2 3 4 5
2 more votes to show rating
add to favorites
launch autoscroll
font size
0
reset
transpose
0
reset
simplify chords
display chords
guitar tuner
Autoscroll
slow
fast
+/-
esc
set tempo
stop
Help us to improve Ultimate-Guitar.com Take our survey!
×
Author
Difficulty
novice
His picking patterns for the chorus tend to alter a little between versions, 
so don't worry too much about it!

[intro]
    Asus2                               Dm/F
e|-----------------------------------|-----------------------------------|
B|-----------------------------------|-----------------------------------|
G|----2---2---2---2---2---2---2---2--|----2---2---2---2---2---2---2---2--|
D|------2-------2-------2-------2----|------3-------3-------3-------3----|
A|--0-------0-------0-------0--------|--0-------0-------0-------0--------|
E|-----------------------------------|-----------------------------------| x2

[verse]

Asus2                    Dm/F
Hey my heart’s turned to stone
          Asus2      Dm/F
It cannot break now
Asus2                    Dm/F
Hey my heart’s turned to stone
             Asus2 
I give it to you Darling
            Dm/F 
Do what you will now (pause)
                Asus2 
Let it pull you down
        Dm/F
Down to earth
                 Asus2 
With these walls around you
               Dm/F
Darling you’re free
Asus2                    Dm/F
Hey my heart’s turned to stone
          Asus2  
Just like you darling
     Dm/F                      Asus2   
Just one more statue in this...        

    Fmaj7                                  
e|-----------------------------------|
B|--------1-------1-------1-------1--|
G|----2-------2-------2-------2------|
D|------3-------3-------3-------3----|
A|--0-------0-------0-------0--------|
E|-----------------------------------|

Fmaj7
Cold 
   Asus2 
So cold 
   Fmaj7
So cold

[chorus]
    Am                                  Fmaj7
e|-----------------------------------|-----------------------------------|
B|----1---1---1---1---1---1---1---1--|----1---1---1---1---1---1---1---1--|
G|----2---2---2---2---2---2---2---2--|----2---2---2---2---2---2---2---2--|
D|------2-------2-------2-------2----|--3---3---3---3---3---3---3---3----|
A|--0-------0-------0-------0--------|-----------------------------------|
E|-----------------------------------|-----------------------------------| 

Am                           Fmaj7
Say you’re the one I've been searching for
   Am          Fmaj7
Darling you’re burning

    Am                                  Fmaj7
e|-----------------------------------|-----------------------------------|
B|--------1-------1-------1-------1--|----1---1---1---1---1---1---1---1--|
G|----2-------2-------2-------2------|------2-------2-------2-------2----|
D|------2-------2-------2-------2----|--3-------3-------3-------3--------|
A|--0-------0-------0-------0--------|-----------------------------------|
E|-----------------------------------|-----------------------------------| 

        Am
Burning alive
              Fmaj7
But you ain’t crying
            Am       Fmaj7
Because you have felt this pain
            Am
Because you know
              Fmaj7
You know this game
                Am
You turned into stone
              Fmaj7   Am
And you cannot break now
                 Fmaj7
So you've turned to stone
                  Am         Fmaj7
Can you feel that weight now
Am          Fmaj7
Darling I’m sorry
       Am          Fmaj7
So disappointing to you
Suggest correction
Give kudos to tab author, rate the tab!
1 2 3 4 5
comments
print report bad tab
guest
You may want to rate the tab now too:
select rating
Wanna post a correction for this tab? Suggest correction