Oops, an error
Loading. Please wait.

Broken Heroes bass

version 1
version 1

Whole song

Interactive

by Saxon
169 views 1 this week
no commentswrite comment
1 2 3 4 5
3 more votes to show rating
add to favorites
×
Save as Personal and add changes to this tab that will be seen only by you. Learn more ›
×
You can save this tab as Personal to edit and correct it or add notes. All changes will be seen only by you. Learn more »
launch autoscroll
font size
0
reset
guitar tuner
edit
Autoscroll
slow
fast
+/-
esc
set tempo
stop
Author
Difficulty
-----------------------------------------------------------------
Saxon - Broken heroes
-----------------------------------------------------------------
 9 - sept - 2015
 Tabbed By : miguelon76
 e-mail: mithrandir_nbr@hotmail.com
 Tuning: standard GDAE

0:16                                      x2
G||----------|----------|--------|----------||
D||----------|----------|--------|----------||
A||-3--------|-(3)------|--------|----------||
E||----------|----------|-0------|-(0)------||

   They came to fight...
G|----------|----------|----------|----------|
D|----------|----------|----------|----------|
A|----------|----------|-3-3------|-(3)------|
E|-0-0------|-(0)------|----------|----------|

  Young men...
G|----------|----------|----------|----------|
D|----------|----------|----------|----------|
A|----------|----------|-3-3------|-(3)------|
E|-0-0------|-(0)------|----------|----------|

  They died before...
G|--------|----------|--------|----------|
D|--------|----------|--------|----------|
A|--------|----------|-5------|-(5)------|
E|-0------|-(0)------|--------|----------|

  A book of...
G|--------|----------|--------|----------|
D|--------|----------|--------|----------|
A|--------|----------|-3------|-5--------|
E|-0------|-(0)------|--------|----------|

  Where are they now! [CHORUS]                                                        
G|--------------------------------------|----------|
D|--------------------------------------|----------|
A|-------------------7-7-7-7-7-7--3--5--|----------|
E|--------------------------------------|-0-3-5-0--|

                            x2              The broken heroes...
G||----------------|----------||----------------|--------|----------|
D||----------------|----------||----------------|--------|----------|
A||-7-7-7-7--3--5--|----------||-7-7-7-7--3--5--|--------|----------|
E||----------------|-0-3-5-0--||----------------|-0------|-(0)------|

   Uncle sam is waiting... [VERSE]
G|----------|----------|--------|----------|
D|----------|----------|--------|----------|
A|----------|----------|-3------|-(3)------|
E|-0-0------|-(0)------|--------|----------|

  He says you've got...
G|----------|----------|----------|----------|
D|----------|----------|----------|----------|
A|----------|----------|-3-3------|-(3)------|
E|-0-0------|-(0)------|----------|----------|

  The stations full of...
G|--------|----------|--------|----------|
D|--------|----------|--------|----------|
A|--------|----------|-5------|-(5)------|
E|-0------|-(0)------|--------|----------|

  The engine pulls you out...
G|--------|----------|--------|----------|
D|--------|----------|--------|----------|
A|--------|----------|-3------|-5--------|
E|-0------|-(0)------|--------|----------|

 Where are they now!  [CHORUS]                                                       
G|--------------------------------------|----------|
D|--------------------------------------|----------|
A|-------------------7-7-7-7-7-7--3--5--|----------|
E|--------------------------------------|-0-3-5-0--|

                            x2              The broken heroes... x2
G||----------------|----------||----------------||-----------------||
D||----------------|----------||----------------||-----------------||
A||-7-7-7-7--3--5--|----------||-7-7-7-7--3--5--||-7-7-7-7-7-7-7-7-||
E||----------------|-0-3-5-0--||----------------||-----------------||

                  x2                 x2                 x2                 x2
G||-----------------||-----------------||-----------------||-----------------||
D||-----------------||-----------------||-----------------||-----------------||
A||-3-3-3-3-3-3-3-3-||-7-7-7-7-7-7-7-7-||-5-5-5-5-5-5-5-5-||-3-3-3-3-3-3-3-3-||
E||-----------------||-----------------||-----------------||-----------------||

                  x2   Where are they now!
G||-----------------||--------------------------------------|----------|
D||-----------------||--------------------------------------|----------|
A||-5-5-5-5-5-5-5-5-||-------------------7-7-7-7-7-7--3--5--|----------|
E||-----------------||--------------------------------------|-0-3-5-0--|

                            x2              The broken heroes...
G||----------------|----------||----------------||--------|-------------|
D||----------------|----------||----------------||--------|-------------|
A||-7-7-7-7--3--5--|----------||-7-7-7-7--3--5--||--------|-------------|
E||----------------|-0-3-5-0--||----------------||-0------|-(0)----0-0--|

   The pipes are calling...
G|--------|----------|----------|----------|
D|--------|----------|----------|----------|
A|--------|----------|-3-3------|-(3)------|
E|-0------|-(0)------|----------|----------|

  The general says...
G|----------|----------|----------|----------|
D|----------|----------|----------|----------|
A|----------|----------|-3-3------|-(3)------|
E|-0-0------|-(0)------|----------|----------|

  You rode into the valley...
G|----------|----------|--------|----------|
D|----------|----------|--------|----------|
A|----------|----------|-5------|-(5)------|
E|-0-0------|-(0)------|--------|----------|

  Seven lonely graves...
G|--------|----------|-----------------|-----------------|
D|--------|----------|-----------------|-----------------|
A|--------|----------|-3-3-3-3-3-3-3-3-|-5-5-5-5-5-5-5-5-|
E|-0------|-(0)------|-----------------|-----------------|

  Where are they now!   [PRE-SOLO]                                                      
G|--------------------------------------|----------|
D|--------------------------------------|----------|
A|-------------------7-7-7-7-7-7--3--5--|----------|
E|--------------------------------------|-0-3-5-0--|

                            x2              The broken heroes... x2 [GUITAR SOLO]
G||----------------|----------||----------------||-----------------||
D||----------------|----------||----------------||-----------------||
A||-7-7-7-7--3--5--|----------||-7-7-7-7--3--5--||-7-7-7-7-7-7-7-7-||
E||----------------|-0-3-5-0--||----------------||-----------------||

                  x2                 x2                 x2                 x2
G||-----------------||-----------------||-----------------||-----------------||
D||-----------------||-----------------||-----------------||-----------------||
A||-3-3-3-3-3-3-3-3-||-7-7-7-7-7-7-7-7-||-5-5-5-5-5-5-5-5-||-3-3-3-3-3-3-3-3-||
E||-----------------||-----------------||-----------------||-----------------||

                  x2               repeat to end
G|-----------------||----------------|----------||
D|-----------------||----------------|----------||
A|-5-5-5-5-5-5-5-5-||-7-7-7-7--3--5--|----------||
E|-----------------||----------------|-0-3-5-0--||


| /  slide up
| \  slide down
| h  hammer-on
| p  pull-off
| ~  vibrato
| +  harmonic
| x  Mute note
Suggest correction
Creating personal tab
Creating personal tab
You can edit any tab online and save it as your Personal.

You can edit, replace or remove any tab part or add personal notes – all changes will be seen only by you.

Personal tabs can be accessed anytime from any device, even offline.
Learn more »
Give kudos to tab author, rate the tab!
1 2 3 4 5
comments
print report bad tab
guest
You may want to rate the tab now too:
select rating
Wanna post a correction for this tab? Suggest correction