Oops, an error
Loading. Please wait.

Hold On Tab

version 1
version 1

Whole song

Interactive

1,402 views 1 this week
no commentswrite comment
1 2 3 4 5
please rate
add to favorites
launch autoscroll
font size
0
reset
how to read this tab
guitar tuner
Tab Pro tools
  • play this tab
  • loop segment
  • change instrument
  • show fretboard
  • metronome
×
Best way to learn
"Hold On"
Autoscroll
slow
fast
+/-
esc
set tempo
stop
Contributor
Dogs of War album, again!
Intro
d#|------------------------|----------------|
A#|------------------------|----------------|
F#|o-9-9-5-5----12-12-7-7-o|-9-9-5-5---7----|
C#|o-9-9-5-5----12-12-7-7-o|-9-9-5-5---7----|
G#|--7-7-3-3----10-10-5-5--|-7-7-3-3---5----|
D#|------------------------|----------------|

Intro Solo
d#|-15b---15--12----15b---15--12----12b-12-12-----------------------------------------------------|
A#|--------------12--------------12-----------12-15b-15-15-12--------12----------12---------------|
F#|-----------------------------------------------------------14-12b----12-14b-----14b---14-12-11~|
C#|-----------------------------------------------------------------------------------------------|
G#|-----------------------------------------------------------------------------------------------|
D#|-----------------------------------------------------------------------------------------------|

Verse(you can work out where the pm is easily)
d#|------------------------------------------------------------------------|
A#|------------------------------------------------------------------------|
F#|-6-----6-----6-------------------9-----9-----9--------------------------|
C#|-6-6-6-6-6-6-6-6-7-----7-----7---9-9-9-9-9-9-9-9-9-----9-----9----------|
G#|-4-4-4-4-4-4-4-4-7-7-7-7-7-7-7---7-7-7-7-7-7-7-7-9-9-9-9-9-9-9-9--------|
D#|-----------------5-5-5-5-5-5-5-5-----------------7-7-7-7-7-7-7-7--------|

Verse gtr ii
d#|----------------------------|---------------------------|
A#|----------------------------|---------------------------|
F#|-6-9-6-8-9-6---6-9-6-8-9-4--|-6-9-6-8-9-8---6-9-8-6-9-4-|
C#|----------------------------|---------------------------|
G#|----------------------------|---------------------------|
D#|----------------------------|---------------------------|

Pre-Chorus(same rhythm) Chorus
d#|---------|--------|-----------------|
A#|---------|--------|-7---------------|
F#|-5-------|-7------|-6---7-------9---|go between these for solo rhythm
C#|-5-------|-7------|-4---7---7---9---|
G#|-3-------|-5------|-----5---7---7---|
D#|---------|--------|---------5-------|

Pre-Chorus Gtr ii
d#|-0--------|---0-----0-----0-----0-----0-----|
A#|--1-------|-----3-----3-----3-----3-----3---|
F#|---0------|-------2-----2-----2-----2-----2-|
C#|----------|-0-------------------------------|
G#|----------|---------------------------------|
D#|----------|---------------------------------|

comments
We did not receive enough feedback on this tab! Please rate:
print report bad tab
1 2 3 4 5
I want to post or [tab]
guest
You may want to rate the tab now too:
select rating
Please do not post tabs as comments. Select "correction" instead!