Oops, an error
Loading. Please wait.

Wheels Of Steel bass

by Saxon
6,543 views 12 this week
no commentswrite comment
1 2 3 4 5
x 4
add to favorites
×
Save as Personal and add changes to this tab that will be seen only by you. Learn more ›
×
You can save this tab as Personal to edit and correct it or add notes. All changes will be seen only by you. Learn more »
launch autoscroll
font size
0
reset
guitar tuner
edit
Autoscroll
slow
fast
+/-
esc
set tempo
stop
Author
Difficulty
Wheels of steel
Saxon.

The song begins with just the guitar and you come in when the drums come in.

Verse:

G--------------------------------------|
D--------------------------------------|
A---0-0-0-0-0-0-0-0-0-0-0-0-0-0-0-0----|  X 11
E--------------------------------------|

Chorus:

"Shes got...."

G--------------------------------------|
D--------------------------------------|
A---5~~~~~~3~~~~~~3-0~~~~~~~~~~--------| X 2
E--------------------------------------|

Verse:

G--------------------------------------|
D--------------------------------------|
A---0-0-0-0-0-0-0-0-0-0-0-0-0-0-0-0----|  X 11
E--------------------------------------|

Chorus:

"Shes got...."

The is chorus has afew changes to it. Aswell as playing what you would usually play in 
chorus, you play the same riff once with the "--3-0--"
repeated two more times.

G------------------------------------------------------|
D------------------------------------------------------|
A---5~~~~~~3~~~~~~3-0~~~~~~~~~3-0~~~~~~~~~3-0~~~~~~~~~-|
E------------------------------------------------------|

PAUSE! What for the guitar to play it's bit.

Solo:

G--------------------------------------|
D--------------------------------------|
A---0-0-0-0-0-0-0-0-0-0-0-0-0-0-0-0----|  X 8
E--------------------------------------|

Then

G--------------------------------------|
D--------------------------------------|
A---5~~~~~~3~~~~~~3-0~~~~~~~~~~--------| X 2
E--------------------------------------|

Verse:

G--------------------------------------|
D--------------------------------------|
A---0-0-0-0-0-0-0-0-0-0-0-0-0-0-0-0----|  X 11
E--------------------------------------|

Chorus:

"Shes got...."

G--------------------------------------|
D--------------------------------------|
A---5~~~~~~3~~~~~~3-0~~~~~~~~~~--------| X 2
E--------------------------------------|

Verse:

G--------------------------------------|
D--------------------------------------|
A---0-0-0-0-0-0-0-0-0-0-0-0-0-0-0-0----|  X 3
E--------------------------------------|

Then

G--------------------------------------|
D--------------------------------------|
A---0-0-0-0-0-0-0-0---5--3--0~~~~------|
E--------------------------------------|

Verse:

Verse until the end.

G--------------------------------------|
D--------------------------------------|
A---0-0-0-0-0-0-0-0-0-0-0-0-0-0-0-0----|
E--------------------------------------|

DC

            
            
Suggest correction
Creating personal tab
Creating personal tab
You can edit any tab online and save it as your Personal.

You can edit, replace or remove any tab part or add personal notes – all changes will be seen only by you.

Personal tabs can be accessed anytime from any device, even offline.
Learn more »
comments
print report bad tab
guest
You may want to rate the tab now too:
select rating
Wanna post a correction for this tab? Suggest correction