Oops, an error
Loading. Please wait.

Wheels Of Steel Tab

version 1
version 1

Solo

  • This tab is based on the 1980 studio version (http... Show more

Whole song

4 views 1 this week
no commentswrite comment
1 2 3 4 5
1 last vote to show rating
add to favorites
launch autoscroll
font size
0
reset
how to read this tab
guitar tuner
Autoscroll
slow
fast
+/-
esc
set tempo
stop
Help us to improve Ultimate-Guitar.com Take our survey!
×
Author
Difficulty
Tuning
intermediate
D# G# C# F# A# D#
About this tab version
This tab is based on the 1980 studio version (https://www.youtube.com/watch?v=xIyPUgyk0NQ). The tuning in the recording is slightly lower than Eb standard and is around halfway between Eb standard and D standard (which is 3/4 steps down). Was this info helpful? Yes No
Eb|----------------------------------------------------------------------------------------15--14--12--
Bb|--0--15--0--15--0--15--0--15--0--15v-----------13------13--15v-----13-------------------------------
Gb|---------------------------------------------------14------------------14v--------------------------
Db|----------------------------------------------------------------------------------------------------
Ab|----------------------------------------------------------------------------------------------------
Eb|----------------------------------------------------------------------------------------------------

Eb|-----------------------------------------------------------------------------------------------------
Bb|--15--13------15--13--12--13--15--13------15--13---------------------10------10--12v--------10-------
Gb|----------14--------------------------14----------14v-----------/11------11---------------------11v--
Db|-----------------------------------------------------------------------------------------------------
Ab|-----------------------------------------------------------------------------------------------------
Eb|-----------------------------------------------------------------------------------------------------

Eb|---------19-----------------------------------------------------------------------------------------------
Bb|--17b19------17b19v---------------------------------------------------------------------------------------
Gb|-------------------------------17------------5------------17------------5---------17-----5------17-----5--
Db|---------------------------19------19-----7-----7-----19------19-----7-----7--19------7-----19------7-----
Ab|----------------------------------------------------------------------------------------------------------
Eb|----------------------------------------------------------------------------------------------------------

Eb|-----------------------------------------------------------------------------------------------------------
Bb|---------------------------------17-----------------------8--------------------------------17------17--19--
Gb|------17------17--19v-----0----------0--5------------7/9-----9v------------17------17--19------19----------
Db|--19------19--------------0--19------------7v-----7--------------------19------19--------------------------
Ab|-----------------------------------------------------------------------------------------------------------
Eb|-----------------------------------------------------------------------------------------------------------

Eb|--16--17--19--21--19--17-------------------------------------------------------------------------------
Bb|--------------------------17--17--20b22v---------------------------------------------------------------
Gb|------------------------------------------------17-----------------------------------------------------
Db|----------------------------------------------------19--18--17-------------------------17------17--18--
Ab|----------------------------------------------------------------19--18--17--15--17/19------19----------
Eb|-------------------------------------------------------------------------------------------------------

Eb|-----------------------------------------------------------------21----------------------------------
Bb|-------------------------------------------20---------------------------17---------------------------
Gb|------17------19--17------19--17--19b21--------21r19p17--19v----------------------------19--17-------
Db|--19------19----------19----------------------------------------------------19--17--------------19v--
Ab|------------------------------------------------------------------------------------19---------------
Eb|-----------------------------------------------------------------------------------------------------

Eb|-------------------------------17b19-----17b19-----17b19-----17b19--17b19--17b19v--\
Bb|--20-----17-------------------------------------------------------------------------
Gb|-------------19v-----17-------------------------------------------------------------
Db|------------------------------------------------------------------------------------
Ab|------------------------------------------------------------------------------------
Eb|------------------------------------------------------------------------------------
Suggest correction
Give kudos to tab author, rate the tab!
1 2 3 4 5
comments
print report bad tab
guest
You may want to rate the tab now too:
select rating
Wanna post a correction for this tab? Suggest correction