Oops, an error
Loading. Please wait.

Wheels Of Steel tab

version 2
version 2

Whole song

by Saxon
24,835 views 30 this week
3 commentsread comments
1 2 3 4 5
x 6
add to favorites
×
Save as Personal and add changes to this tab that will be seen only by you. Learn more ›
×
You can save this tab as Personal to edit and correct it or add notes. All changes will be seen only by you. Learn more »
launch autoscroll
font size
0
reset
how to read this tab
guitar tuner
edit
Autoscroll
slow
fast
+/-
esc
set tempo
stop
Author
First tab so Appreciate.

Saxon
Wheels of Steel
Tune Guitar Down To Steps
Intro
1st Time only;
E----------------------------------------------------------------------------|
B----------------------------------------------------------------------------|
G---2~~~~~~~~~~~~~~~~~~~~~~~~~~~------------------54-------------------------|
D---2~~~~~~~~~~~~~~~~~~~~~~~~~~~------------------54-------------------------|
A---0~~~~~~~~~~~~~~~~~~~~~~~~~~~---------------------------------------------|
E----------------------------------------------------------------------------|
 Play ^ and the lower one once and then repeat lower one
7 times
E----------------------------------------------------------------------------|
B----------------------------------------------------------------------------|
G-2---5-42--------5-425\4----2---5-42---------5--4\2---------5\4-------------|
D-2---5-42--------5-425\4----2---5-42---------5--4\2---------5\4-------------|
A-0-0--0-----3p0---0-----------0-0--0-0--0-0----0----------------------------|
E----------------------------------------------------------------------------|

Chorus;
E----------------------------2--------3--------------------------------------|
B-3--------3---3-----------3--------3---3------------------------------------|
G-2--------0---0---2------2--------0---0-------------------------------------|
D-0--------0---0---2------0--------0---0-------------------------------------|
A-----------3---2---0---------------3---2------------------------------------|
E----------------------------------------------------------------------------|

E----------------------------------------------------------------------------|
B----------------------------------------------------------------------------|
G-2---5-42--------5-425\4----2---5-42---------5--4\2---------5\4-------------|
D-2---5-42--------5-425\4----2---5-42---------5--4\2---------5\4-------------|
A-0-0--0-----3p0---0-----------0-0--0-0--0-0----0----------------------------|
E----------------------------------------------------------------------------|

Verse 2;
Play this 7 times.
E----------------------------------------------------------------------------|
B----------------------------------------------------------------------------|
G-2---5-42--------5-425\4----2---5-42---------5--4\2---------5\4-------------|
D-2---5-42--------5-425\4----2---5-42---------5--4\2---------5\4-------------|
A-0-0--0-----0-0---0-----------0-0--0-0--0-0----0----------------------------|
E----------------------------------------------------------------------------|

Chorus 2;
E-------------------------2--------3------------------------------------|
B-3--------3---3----------3--------3---3--------------------------------|
G-2--------0---0---2------2--------0---0------2---2---2-----------------|
D-0--------0---0---2------0--------0---0----5-2-5-2-5-2-----------------|
A----------3---2---0---------------3---2----5-0-5-0-5-0-----------------|
E-------------------------------------------3---3----3------------------|

Any Problems? Email is widget_898@hotmail.com
Hope you like it, its my first tab so appreciate.
Saxon Rock!
Suggest correction
Creating personal tab
Creating personal tab
You can edit any tab online and save it as your Personal.

You can edit, replace or remove any tab part or add personal notes – all changes will be seen only by you.

Personal tabs can be accessed anytime from any device, even offline.
Learn more »
comments
print report bad tab
3 comments total.
-1 reply
George898 50 Jan 11, 2006 01:33 AM

What do you think of it, i suppose i messed i up alot in the chorus but i think the rest is ok

+1 reply
ThrillerIOH 274 Mar 23, 2007 12:56 PM

no its not that good

+2 reply
srki5555 10 Dec 07, 2007 01:10 AM

no its not that good

guest
You may want to rate the tab now too:
select rating
Wanna post a correction for this tab? Suggest correction