Oops, an error
Loading. Please wait.

Marked With The Knowledge Tab

version 2
version 2

Intro

  • Added capo on the 7th fret for ease, but a no capo... Show more
7 views 1 this week
no commentswrite comment
1 2 3 4 5
3 more votes to show rating
add to favorites
launch autoscroll
font size
0
reset
how to read this tab
guitar tuner
Autoscroll
slow
fast
+/-
esc
set tempo
stop
Help us to improve Ultimate-Guitar.com Take our survey!
×
Author
Difficulty
Capo
novice
7th fret
About this tab version
Added capo on the 7th fret for ease, but a no capo version is also included. Tabbed by ear. Was this info helpful? Yes No
[Intro]

[CAPO 7th]
e|-0--0---4--0---5-4-2-0-2-4-2-0-|
B|------0------0-----------------|
G|-------------------------------|
D|-------------------------------|
A|-------------------------------|
E|-------------------------------|

[NO CAPO]
e|-7--7---11--7---12-11-9-7-9-11-9-7-|
B|------7-------7--------------------|
G|-----------------------------------|
D|-----------------------------------|
A|-----------------------------------|
E|-----------------------------------|
Suggest correction
Give kudos to tab author, rate the tab!
1 2 3 4 5
comments
print report bad tab
guest
You may want to rate the tab now too:
select rating
Wanna post a correction for this tab? Suggest correction