Oops, an error
Loading. Please wait.

Admit It bass

version 1
version 1

Whole song

Interactive

3,201 views 3 this week
1 commentread comment
1 2 3 4 5
x 4
add to favorites
×
Save as Personal and add changes to this tab that will be seen only by you. Learn more ›
×
You can save this tab as Personal to edit and correct it or add notes. All changes will be seen only by you. Learn more »
launch autoscroll
font size
0
reset
guitar tuner
edit
Autoscroll
slow
fast
+/-
esc
set tempo
stop
I only have the chorus and verse at the moment, i'll as more as i figure it out.

Intro
G|-----------------------------------------|
D|-----------------------------------------|
A|-----------------------------------------|
E|-----4~----------------------------------|


Verse
G|-----------------------------------------|
D|-----------------------------------------|
A|----------6-6-6-4------------------------|
E|-4-4-4-2---------------------------------|

Chorus
G|--------------------------------------------|
D|--------------------------------------------|
A|------------------------------------------2-|
E|--0[x16]--2-4-4-4-2-4-4-4-2-4-4-4-2-4-4-4---|

            
            
Suggest correction
Creating personal tab
Creating personal tab
You can edit any tab online and save it as your Personal.

You can edit, replace or remove any tab part or add personal notes – all changes will be seen only by you.

Personal tabs can be accessed anytime from any device, even offline.
Learn more »
comments
print report bad tab
1 comment total.
0 reply
juliebays 42 Sep 29, 2014 10:20 PM

Lack of accuracy. Tab incomplete. There's more to the song than 5 different notes, so it is obviously incomplete. That is al I have to say.

guest
Wanna post a correction for this tab? Suggest correction