Oops, an error
Loading. Please wait.

Ahh Men tab

version 4
version 4

Whole song

8,367 views 9 this week
1 commentread comment
1 2 3 4 5
x 4
add to favorites
×
Save as Personal and add changes to this tab that will be seen only by you. Learn more ›
×
You can save this tab as Personal to edit and correct it or add notes. All changes will be seen only by you. Learn more »
launch autoscroll
font size
0
reset
how to read this tab
guitar tuner
edit
Autoscroll
slow
fast
+/-
esc
set tempo
stop
Difficulty
EDIT:
I submitted this tab before, but I left the picking part out and I'm fixing the chords 
the verses because unless you mute the G B and e strings it won't sound right. I figured 
where Max puts his pinky, so yeah.
Check it out.


=-=-=-=-=-=-=-=-=-=-=-=-=-=-=-=-=-=-=-=-=-=-=-=-=-=-=-=-=-=-=-=-=-=-=-=-=-=-=-=-=-=-=-=-=-=-=-

I tabbed this watching shadowelite141's cover of this song. It sounds just like Max's
from watching both of their videos multiple times, their fingers appear to be similar.

The strumming for the chorus isn't exact, but it isn't hard to figure out- just listen carefully.

EDIT: Max plays the verses one fret higher than the YouTuber.

Here's the link to shadowelite141's video:
http://www.youtube.com/watch?v=Gl5EyLZp7rg

-------------------------------------------------------------------------------------------
                                         Ahh... Men by Say Anything
-------------------------------------------------------------------------------------------

Intro (Optional)

E|----------------------------------|
B|----------------------------------|
G|-9-9-9-9-9-9-9-------11-11-11-11--|
D|-9-9-9-9-9-9-9-9-9-9--8--8--8--8--|
A|-6-6-6-7-7-7-7-9-9-9--9--9--9--9--|
E|---------------7-7-7--------------|
    PM     PM      PM       PM

Verse

E|-------------------------------------------------|
B|-------------------------------------------------|
G|-4-11-11-11--4-11-11-11--4-11-11-11--4-11-11-11--|
D|-1/-8--8--8--1/-8--8--8--1/-8--8--8--1/-8--8--8--| x 7
A|-2/-9--9--9--2/-9--9--9--2/-9--9--9--2/-9--9--9--|
E|-2/-9--9--9--2/-9--9--9--2/-9--9--9--2/-9--9--9--|

E|---------------------------------------------------------|
B|---------------------------------------------------------|
G|-4-11-----------4-11-11-------11--4-11------------4-11---|
D|-1/-8--8-----11---1/-8--8---------1/-8--8-----11--1/-8---|
A|-2/-9----9--------2/-9----9-------2/-9----9-------2/-9---|
E|-2/-9------9------2/-9------9-----2/-9------9-----2/-9---|

E|-------------------------------------------------|
B|-------------------------------------------------|
G|-4-11-11-11--4-11-11-11--4-11-11-11--4-11-11-11--|
D|-1/-8--8--8--1/-8--8--8--1/-8--8--8--1/-8--8--8--| x 2
A|-2/-9--9--9--2/-9--9--9--2/-9--9--9--2/-9--9--9--|
E|-2/-9--9--9--2/-9--9--9--2/-9--9--9--2/-9--9--9--|

Chorus

E|---------------------------------------------|
B|---------------------------------------------|
G|11-11-11-11-11-11-11-11-11-11-11-11-11-11-11-|
D|-9--9--9--9--9--9--9--9--9--9--9--9--9--8--8-| x 4
A|-6--6--6--7--7--7--7--9--9--9--9--9--9--9--9-|
E|----------------------7--7--7--7--7--7--7--7-|

 "There's a crack..........in its fluorescent swirl,"
E|---------------------------------------------|
B|---------------------------------------------|
G|11-11-11-11-11-11-11-11-11-11-11-11-11-11-11-|
D|-9--9--9--9--9--9--9--9--9--9--9--9--9--8--8-|
A|-6--6--6--7--7--7--7--9--9--9--9--9--9--9--9-|
E|----------------------7--7--7--7--7--7--7--7-|


"Eat us up...............and a window to hell,"
E|---------------------------------------------|
B|---------------------------------------------|
G|11-11-11-11-11-11-11-11-11-11-11-11-11-11-11-|
D|-9--9--9--9--9--9--9--9--9--9--9--9--9--8--8-|
A|-6--6--6--7--7--7--7--9--9--9--9--9--9--9--9-|
E|----------------------7--7--7--7--7--7--7--7-|

"Where those who.........displayed what they've done,"
E|---------------------------------------------|
B|---------------------------------------------|
G|11-11-11-11-11-11-11-11-11-11-11-11-11-11-11-|
D|-9--9--9--9--9--9--9--9--9--9--9--9--9--8--8-|
A|-6--6--6--7--7--7--7--9--9--9--9--9--9--9--9-|
E|----------------------7--7--7--7--7--7--7--7-|

"They'll be shot up......reluctantly let them in,"
E|---------------------------------------------|
B|---------------------------------------------|
G|11-11-11-11-11-11-11-11-11-11-11-11-11-11-11-|
D|-9--9--9--9--9--9--9--9--9--9--9--9--9--8--8-|
A|-6--6--6--7--7--7--7--9--9--9--9--9--9--9--9-|
E|----------------------7--7--7--7--7--7--7--7-|

E|-----------------------------------------------|
B|-----------------------------------------------|
G|-4-11-11-11--4-11-------11--4-11-11-11--4-11---|
D|-1/-8--8--8--1/-8--8--------1/-8--8--8--1/-8---|
A|-2/-9--9--9--2/-9----9------2/-9--9--9--2/-9---|
E|-2/-9--9--9--2/-9------9----2/-9--9--9--2/-9---|

Song lyrics

Staring out the window of our tour bus
And it's just the horny driver and us.
We sit and trade wit and smoke and we cuss,
Talking about our friendly border drug bust.
And I know the future's cloudy and gray.
Record like mine, give up or go gay.
You're looking down at me with blue and black eyes,
Pissing down a storm from purple night skies.

And I know the concept's muddy and trite
That all that is large and all that is slight
Is flowing in the stream of holy floodlights.
At writing holy books, Lord knows we bite
But if this is your will and my testament,
I will bow to no belief that they bent.
Still I'm just a sperm begot from your love,
Basking in the bread, the blood of your dove.

Can I lie with you in your grave?

There's a crack in the edge of the end of the world
Where I will sit with my love in its fluorescent swirl.
Eat us up, break it down to the tiniest cell
In our room with a view and a window to hell
Where those who buried bodies in their barrels of fun
Will be marched through museums that displayed what they've done.
They'll be shot up through the sky by a cannon of sin
Where we'll reluctantly let them in.
So can I lie in your grave?

            
            
Suggest correction
Creating personal tab
Creating personal tab
You can edit any tab online and save it as your Personal.

You can edit, replace or remove any tab part or add personal notes – all changes will be seen only by you.

Personal tabs can be accessed anytime from any device, even offline.
Learn more »
comments
print report bad tab
1 comment total.
0 reply
_Strech_ 53 Nov 01, 2013 02:23 PM

This is really good, except that your not supposed to slide at the
4-11

2/9 - part. And I'm not sure if there should be a 4 and a 11 there too...
But anyways great tab!

guest
Wanna post a correction for this tab? Suggest correction