Oops, an error
Loading. Please wait.

Alive With The Glory Of Love bass

version 1
version 1

Whole song

Interactive

19,699 views 9 this week
no commentswrite comment
1 2 3 4 5
x 6
add to favorites
×
Save as Personal and add changes to this tab that will be seen only by you. Learn more ›
×
You can save this tab as Personal to edit and correct it or add notes. All changes will be seen only by you. Learn more »
launch autoscroll
font size
0
reset
guitar tuner
edit
Autoscroll
slow
fast
+/-
esc
set tempo
stop
Alive With The Glory Of Love - Say Anything

This tab is about 95% correct I think, but there's some things
that I just can't hear well enough to be sure. I'm sure all the numbers
of notes are correct, so just listen to the song to figure out the timing :)
Tabbed by Nick

Intro:
G|--------------------------------------------------|
D|--------------------------------------------------|
A|--------------------------------------------------|
E|-0000000000-0000000000------0000000000--0/12------|

Verse 1:
G|---------------------------------------|
D|--------------------------9/11-9-7-----|
A|--------5-5-5-9-9-9-7-7-7----------9-7-|
E|-7-7-7---------------------------------|

G|--------------------------------------------------------------|
D|----------------------------------------------------------7-9-|
A|----------------5-5-5-5-5-55-7--------------5-7-7-7-7-7-7-----|
E|-7-7-7-7-7-77-5----------------5-5-5-5-5-55-------------------|

G|---------------------------------------------------------------|
D|-----------------------------------7-7-----7-7-----6-6-----6-6-|
A|----------------5-5-5-5-5-55-7-9-9-----9-9-----7-7-----7-7-----|
E|-7-7-7-7-7-77-5------------------------------------------------|

Chorus 1:
G|----------------------------------------|
D|---7---7-----7---7---7---7-----7-9/11-9-|
A|-5---5---5-5---5---9---9---9-9----------|
E|----------------------------------------|

G|----------------------------------------|
D|------------9/11-9----------------------|
A|-7-7-77-9-9-----------------------------|
E|-------------------7-7-7-7-7-7-xxxxxx---|   x2

Pre-Verse:
G|------------------------------7h9--------------------------|
D|--------------------------7-9------------------------------|
A|--------------4-5-5-5-7h9------------------------7-7-7-7-7-|
E|-7-7-7-7-7-77---------------------5-5-5-5-5-55-4-----------|

Verse 2: 
G|-------------------------------------------------------------|
D|-------------------------------------------------------------|
A|--------------4-5-5-5-5-5-55-4-------------------------------|
E|-7-7-7-7-7-77------------------5-5-5-5-5-55-5-0-0-0-0-0-00-0-|

G|----------------------------------------------------------------|
D|--------------------------------------------------------7-----7-|
A|--------------4-5-5-5-5-5-55-4----------------7-7-7-7h9---7h9---|
E|-7-7-7-7-7-77------------------2-2-2-2-2-22-2-------------------|

G|-------------------------------------------|
D|-----------------------------------7-------|
A|---------5-5-5-5---------7-7-7-7h9---9-7---|
E|-7-7-7-7---------5-5-5-5-----------------9-|

G|-----------------------------------------------------------------|
D|-------------------------------------7-7-----7-7-----6-6-----6-6-|
A|-----------------5-5-4-4-5-5-7-7-9-9-----9-9-----7-7-----7-7-----|
E|-7-7-7-7-7-7-5-5-------------------------------------------------|

Chorus 2:
G|----------------------------------------|
D|---7---7-----7---7---7---7-----7-9/11-9-|
A|-5---5---5-5---5---9---9---9-9----------|
E|----------------------------------------|
                            (1st time)           (2nd time)
G|-------------------|----------------------|-----------------|
D|------------9/11-9-|----------------------|-----------------|
A|-7-7-77-9-9--------|----------------------|-----------------|
E|-------------------|-7-7-7-7-7-7-xxxxxx---|-7-7-5-5-7-7-5-5-| x2

Interlude:
G|-----------------------------------|
D|-----------------------------------|
A|-5555555-5555555-5555-5555-5555555-| x3
E|-----------------------------------|
      (2nd time "speed it up, yeah!)
G|------------------------------------------------------------------|
D|------------------------------------------------------------------|
A|------------------5-5-5-4-4-5-4-2---------------------------------|
E|-7-7-7-7-7-7-7-55-----------------5-5-5-5-5-5-4-2-0-0-0-0-0-0-0-0-| x2

verse 3: (after guitar solo-ey bit)
G|-----------------------------------------------------9-------------------|
D|-6/7-6-------------------------------------------9h11-11----------7------|
A|------7---------------5-5-5-5-5-55-4-----------7---------7-7-7-7h9-9-7---|
E|-------7-7-7-7-7-77-5----------------5-5-5-4h5-------------------------9-|

G|-----------------------------------------------------------------|
D|-------------------------------------7-7-----7-7-----6-6-----6-6-|
A|-----------------5-5-4-4-5-5-7-7-9-9-----9-9-----7-7-----7-7-----|
E|-7-7-7-7-7-7-5-5-------------------------------------------------|

Chorus 3:
G|---------------------------------------|
D|---7---7---9-9/11-9--------------------|
A|-5---9---7-----------------------------|
E|--------------------7-7-7-7-7-7-xxxxxx-|

G|----------------------------------------|
D|---7---7-----7---7---7---7-----7-9/11-9-|
A|-5---5---5-5---5---9---9---9-9----------|
E|----------------------------------------|

G|----------------------------------------|
D|------------9/11-9----------------------|
A|-7-7-77-9-9-----------------------------|
E|-------------------7-7-7-7-7-7-xxxxxx---|

G|--------------------------------------------------------------------|
D|---------------------------------9-9-9-9-7-7-9-9--------------------|
A|-5-5-5-5-5-5-5-5-9-9-9-9-9-9-9-9---------------------------------5\-|
E|-------------------------------------------------7-7-7-7-7-7-5-5----|

Enjoy :)

            
            
Suggest correction
Creating personal tab
Creating personal tab
You can edit any tab online and save it as your Personal.

You can edit, replace or remove any tab part or add personal notes – all changes will be seen only by you.

Personal tabs can be accessed anytime from any device, even offline.
Learn more »
comments
print report bad tab
guest
Wanna post a correction for this tab? Suggest correction