Oops, an error
Loading. Please wait.

Alive With The Glory Of Love bass

version 2
version 2

Whole song

Interactive

7,560 views 6 this week
1 commentread comment
1 2 3 4 5
x 5
add to favorites
×
Save as Personal and add changes to this tab that will be seen only by you. Learn more ›
×
You can save this tab as Personal to edit and correct it or add notes. All changes will be seen only by you. Learn more »
launch autoscroll
font size
0
reset
guitar tuner
edit
Autoscroll
slow
fast
+/-
esc
set tempo
stop
Author
Difficulty
Say Anything - Alive With The Glory of Love Bass Tab
Originally Tabbed By: Unregistered User "Nick"
Fully Tabbed By: James Paiva
Email: drkl5@hotmail.com

Just Like The Guitar Tab For This Song, I Tried To Tab Out This Song At My Best. Rhythm 
Be A Little Off, But This Pretty Much Covers Up The Whole Song. Enjoy

Contact My Email If You Need To =)

Tuning: Standard (E A D G)

Intro (0:00)

G|---------------------------------------------|
D|---------------------------------------------|
A|---------------------------------------------|
E|-0000000000-0000000000------------0000000000-|

G|------------------------------------|
D|------------------------------------|
A|-7----------7----------7------------|
E|------------------------------------|

(0:13)
G|------|
D|------|
A|------|
E|-7-/16|


Verse

(0:27)
G|------------------------------------------------------------|
D|---------------------------------------------7/11--9-7------|
A|-------------5----5-5----9----9-9----7--7-7-------------9h7-|
E|-7----7-7---------------------------------------------------|

G|--------------------------------------|
D|--------------------------------------|
A|--------------------5--5-5--5-5-5577--|
E|-7--7-7--7-7-77--5--------------------|

G|-------------------------------------------|
D|-------------------------------------------|
A|--------------------7--7-7--7-7-7-9h12-9h7-|
E|-5--5-5--5-5-55--7-------------------------|

G|---------------------------------|
D|-----7-7-----7-7-----7-7-----7-7-|
A|-9-9-----9-9-----7-7-----7-7-----|
E|---------------------------------|


Chorus

G|-----------------------------------------------------|
D|----7-----7-----7-----7--------7-----7-----7--7/11-9-|
A|-5------5---5-5-----5----7/9-------9---9-9-----------|
E|-----------------------------------------------------|

G|--------------------------------------------|
D|----------7-----7---7/11-9------------------|
A|-7--7---7---7-7-----------------------------|x2
E|----------------------------7-7-7-7-7-7-5-5-|


Verse

G|-------------------------------------7-9-|
D|--------------------------------7-9------|
A|----------------4--5--5-5--7h9-----------|
E|-7--7-7--7-7-77--------------------------|

G|----------------------------------|
D|----------------------------------|
A|-------------------7-7-7-7-7------|
E|-5--5-5--5-5-55-4-------------0/7-|

G|------------------------------------|
D|------------------------------------|
A|----------------4--5--5-5--5-5-55-4-|
E|-7--7-7--7-7-77---------------------|

G|------------------------------------|
D|------------------------------------|
A|------------------------------------|
E|-5--5-5--5-5-55-5--0--0-0--0-0-00-0-|

G|------------------------------------|
D|------------------------------------|
A|----------------4--5--5-5--5-5-55-4-|
E|-7--7-7--7-7-77---------------------|

G|---------------------------------------------|
D|---------------------------------------------|
A|-------------------7--7-7--7h9-12--9-12-9-7--|
E|-2--2-2--2-2-22-2----------------------------|

G|------------------------------------|
D|------------------------------------|
A|-------------------5--5----5--5-----|
E|-7--7----7--7-----------------------|

G|---------------------------------------------|
D|---------------------------------------------|
A|-------------------7--7-7--7h9-12--9-12-9-7--|
E|-5--5----5--5--------------------------------|

G|---------------------------------|
D|---------------------------------|
A|-----------------5-5-4-4-5-5-7-7-|
E|-7-7-7-7-7-7-5-5-----------------|

G|---------------------------------|
D|-----7-7-----7-7-----7-7-----7-7-|
A|-9-9-----9-9-----7-7-----7-7-----|
E|---------------------------------|


Chorus

G|-----------------------------------------------------|
D|----7-----7-----7-----7--------7-----7-----7--7/11-9-|
A|-5------5---5-5-----5----7/9-------9---9-9-----------|
E|-----------------------------------------------------|

G|--------------------------------------------|
D|----------7-----7---7/11-9------------------|
A|-7--7---7---7-7-------------------------4-4-|
E|----------------------------7-7-7-7-7-7-----|

G|-----------------------------------------------------|
D|----7-----7-----7-----7--------7-----7-----7--7/11-9-|
A|-5------5---5-5-----5----7/9-------9---9-9-----------|
E|-----------------------------------------------------|

G|--------------------------------------------|
D|----------7-----7---7/11-9------------------|
A|-7--7---7---7-7-----------------------------|
E|----------------------------7-7-5-5-7-7-5-5-|


Bridge

G|--------------------------------------|
D|--------------------------------------|
A|-5555555--5555555--555--555--5555555--|
E|--------------------------------------|

G|----------------------------------------|
D|----------------------------------------|
A|-5555555--5555555--555--555--5555555--4-|
E|----------------------------------------|

G|------------------------------------------------|
D|------------------------------------------------|
A|-555445--4--555445--4--555444555444-xxxxxxxxxxxx|
E|------------------------------------------------|


Bridge 2

G|------------------------------------------------------------|
D|------------------------------------------------------------|
A|-2-2-2-2-2-2-200-0--5-5-4-4-5-5-4-2-------------------------|x2
E|------------------------------------5-5-5-5-5-5-4-2-0---7---|


Verse

G|------------|
D|-6h7--6-----|
A|---------7--|
E|------------|

G|--------------------------------------|
D|--------------------------------------|
A|--------------------5--5-5--5-5-5577--|
E|-7--7-7--7-7-77--5--------------------|

G|------------------97---------------------------|
D|--------------7-9---97-------------------------|
A|---------7h9------------7--7-7--7-7-7-9h12-9h7-|
E|-5--5-5----------------------------------------|

G|---------------------------------|
D|---------------------------------|
A|-----------------5-5-4-4-5-5-7-7-|
E|-7-7-7-7-7-7-7-7-----------------|

G|---------------------------------|
D|-----7-7-----7-7-----7-7-----7-7-|
A|-9-9-----9-9-----7-7-----7-7-----|
E|---------------------------------|


Chorus

G|-------------------------------------|
D|---7----------7----------7----9h11-9-|
A|-5--------7/9----------7-------------|
E|-------------------------------------|

G|-----------------|
D|-----------------|
A|-----------------|
E|-7-7-7-7-7-7-7-7-|

G|-----------------------------------------------------|
D|----7-----7-----7-----7--------7-----7-----7--7/11-9-|
A|-5------5---5-5-----5----7/9-------9---9-9-----------|
E|-----------------------------------------------------|

G|--------------------------------------------|
D|----------7-----7---7/11-9------------------|
A|-7--7---7---7-7-------------------------xxx-|
E|----------------------------7-7-7-7-7-7-----|

G|----------------------------------|
D|----------------------------------|
A|-5-5-5-5-5-5-5-57-9-9-9-9-9-9-9-9-|
E|----------------------------------|

G|---------------------------------|
D|---------------------------------|
A|---------------------------------|
E|-0-0-0-0-0-0-0-0-7-7-7-7-7-7-5-5-|


End

G|------|
D|------|
A|------|
E|-10/0-|

=============

/=slide up
\=slide down
h=hammer-on
x=dead note

            
            
Suggest correction
Creating personal tab
Creating personal tab
You can edit any tab online and save it as your Personal.

You can edit, replace or remove any tab part or add personal notes – all changes will be seen only by you.

Personal tabs can be accessed anytime from any device, even offline.
Learn more »
comments
print report bad tab
1 comment total.
0 reply
ZeroBassist 30 Sep 29, 2007 03:39 PM

Great Tab...5*

guest
You may want to rate the tab now too:
select rating
Wanna post a correction for this tab? Suggest correction