Oops, an error
Loading. Please wait.

Alive With The Glory Of Love Acoustic tab

version 3
version 3

Interactive

204,707 views 63 this week
22 commentsread comments
1 2 3 4 5
x 49
add to favorites
×
Save as Personal and add changes to this tab that will be seen only by you. Learn more ›
×
You can save this tab as Personal to edit and correct it or add notes. All changes will be seen only by you. Learn more »
launch autoscroll
font size
0
reset
how to read this tab
guitar tuner
edit
Autoscroll
slow
fast
+/-
esc
set tempo
stop
Author
Difficulty
intermediate
-------------------------------------------------------------------------------
                 Alive with the glory of Love - Say anything
-------------------------------------------------------------------------------
Tabbed by: Jesse August and P. Zach Ali
Email:pza151@stu.aii.edu

This tab is from the acoustic set he plays on mtvLIVE.COM you can find 
these songs to play along with at
http://www.mtv.com/music/#/music/live/detail.jhtml?contentId=1525316

CONFIDENT THAT THIS TAB CANNOT BE ANY BETTER
FIGURE OUT RHYTHM FOR YOURSELF

Tuning:Normal this song is in 4/4 time- COUNT! AND GO TO MTV.COM TO 
GET THE RHYTHM!

ITS NOT THAT HARD TO PLAY AND THIS MAY LOOK LENGTHY BUT THERE ARE SMALL 
SUBTLTIES THAT NEEDED TO BE TABBED OUT, MOST ARE JUST REPEATS THOUGH


e|---0-----------------------------------------------------------------------|
B|---0-----------------------------------------------------------------------|
G|---7-----------------------------------------------------------------------|
D|---6-----------------------------------------------------------------------|
A|---7-----------------------------------------------------------------------|
E|---0-----------------------------------------------------------------------|
  When I...


(VERSE 1)

e|-----------------------------X---------------------------------------------|
B|-----------------------------X---------------------9-----------------------|
G|------7----------6-----------6------------6--------9-----------------------|
D|------7----------7-----------7------------X--------9-----------------------|
A|------X----------X-----------5------------7--------7-----------------------|
E|------7----------7-----------X------------5--------------------------------|
     (2 COUNT)   (2COUNT)    (4 COUNT)  (4 COUNT)  (4 COUNT)
     watch you,              wanna do..  right...           right on the ,,,,

e|-----------------------------X---------------------------------------------|
B|-----------------------------X---------------------------------------------|
G|------7----------6-----------6-----------9--------9------------------------|
D|------7----------7-----------7-----------7--------6------------------------|
A|------X----------X-----------5-----------9--------7------------------------|
E|------7----------7-----------X---------------------------------------------|
     (2 COUNT)   (2COUNT)    (4 COUNT)  (4 COUNT)  (4 COUNT)
     foryer       ....       dark day.. view       ohh yea

e|-----------------------------X---------------------------------------------|
B|-----------------------------X---------------------9-----------------------|
G|------7----------6-----------6------------6--------9-----------------------|
D|------7----------7-----------7------------X--------9-----------------------|
A|------X----------X-----------5------------7--------7-----------------------|
E|------7----------7-----------X------------5--------------------------------|
     (2 COUNT)   (2COUNT)    (4 COUNT)  (4 COUNT)  (4 COUNT)
     

e|-----------------------------X---------------------------------------------|
B|-----------------------------X---------------------------------------------|
G|------7----------6-----------6-----------9--------9------------------------|
D|------7----------7-----------7-----------7--------6------------------------|
A|------X----------X-----------5-----------9--------7------------------------|
E|------7----------7-----------X---------------------------------------------|
     (2 COUNT)   (2COUNT)    (4 COUNT)  (4 COUNT)  (4 COUNT)




(CHORUS 1)

e|---0---------------0---------------0-----------0------------------------------|
B|---0---------------0---------------0-----------0------------------------------|
G|---9---------------9---------------9-----------9--------7-7--6-6--6-6--6-6-6-6|
D|---7---------------7---------------9-----------6--------7-7--7-7--9-9--7-7-7-7|
A|---5---------------9---------------7-----------7--------x-x--x-x--x-x--x-x-x-x|
E|--------------------------------------------------------7-7--7-7--7-7--7-7-7-7|
 (4 COUNT)       (4 COUNT)       (2COUNT)     (2COUNT)
    no      oh       no i wont,.take you               take you

e|---0---------------0---------------0-----------0------------------------------|
B|---0---------------0---------------0-----------0------------------------------|
G|---9---------------9---------------9-----------9--------7-7--6-6--6-6--6-6-6-6|
D|---7---------------7---------------9-----------6--------7-7--7-7--9-9--7-7-7-7|
A|---5---------------9---------------7-----------7--------x-x--x-x--x-x--x-x-x-x|
E|--------------------------------------------------------7-7--7-7--7-7--7-7-7-7|
 (4 COUNT)       (4 COUNT)       (2COUNT)     (2COUNT)
    no      oh       no i wont,.take you               take you



(VERSE 1 TRANSITION)

e|-----------------------------X---------------------------------------------|
B|-----------------------------X---------------------9-----------------------|
G|------7----------6-----------6------------6--------9-----------------------|
D|------7----------7-----------7------------X--------9-----------------------|
A|------X----------X-----------5------------7--------7-----------------------|
E|------7----------7-----------X------------5--------------------------------|
     (2 COUNT)   (2COUNT)    (4 COUNT)  (4 COUNT)  (4 COUNT)
          WHOA NO NO NO



repeat (VERSE 1)               REPEAT (VERSE 1)               REPEAT(VERSE 1)




(CHORUS 1)

e|---0---------------0---------------0-----------0------------------------------|
B|---0---------------0---------------0-----------0------------------------------|
G|---9---------------9---------------9-----------9--------7-7--6-6--6-6--6-6-6-6|
D|---7---------------7---------------9-----------6--------7-7--7-7--9-9--7-7-7-7|
A|---5---------------9---------------7-----------7--------x-x--x-x--x-x--x-x-x-x|
E|--------------------------------------------------------7-7--7-7--7-7--7-7-7-7|
 (4 COUNT)       (4 COUNT)       (2COUNT)     (2COUNT)
    no      oh       no i wont,.take you               take you

e|---0---------------0---------------0-----------0------------------------------|
B|---0---------------0---------------0-----------0------------------------------|
G|---9---------------9---------------9-----------9--------7-7--6-6--6-6--6-6-6-6|
D|---7---------------7---------------9-----------6--------7-7--7-7--9-9--7-7-7-7|
A|---5---------------9---------------7-----------7--------x-x--x-x--x-x--x-x-x-x|
E|--------------------------------------------------------7-7--7-7--7-7--7-7-7-7|
 (4 COUNT)       (4 COUNT)       (2COUNT)     (2COUNT)
    no      oh       no i wont,.take you               take you
     

(BREAK 1)

e|-----0---------------------------------------------------------------------|
B|-----0---------------------------------------------------------------------|
G|-----6----CHECK FOR RHYTHM OFF THE CD OR AT THE LINK LISTED ABOVE!--------|
D|-----7---------------------------------------------------------------------|
A|-----5---------------------------------------------------------------------|
E|---------------------------------------------------------------------------|
   Our Treblinka is alive with the glory of love…



e|-----------------------X------|-X-----X-|------5-------|--------|-----0----|
B|-----------------------X------|-X-----X-|------5-------|--------|---L-0-R--|
G|----7--------6---------6------|-6-----4-|------6-------|-5----3-|---E-1-I--|
D|----7--------7---------7------|-6-----4-|------7-------|-6----4-|---T-2-N--|
A|----X--------X---------5------|-4-----2-|------7-------|-6----4-|-----2-G--|
E|----7--------7---------------------------------5-------|-4----2-|-----0----|
   (2COUNT) (2COUNT)  (3COUNT)   \1COUNT/     (3COUNT)    \1COUNT/ 




(Verse 3 TRANSITION) STRUM --->DOWN DOWN

e|---------------------------x-X---------------------------------------------|
B|---------------------------x-X---------------------9-9---------------------|
G|------7-7------------------6-6------------6-6------9-9---------------------|
D|------7-7------------------7-7------------X-x------9-9---------------------|
A|------X-x------------------5-5------------7-7------7-7---------------------|
E|------7-7------------------x-X------------5-5------------------------------|
              
  andifthey catch us        anddispatchus            tothoseseperateworkcamps

e|---------------------------x-X---------------------------------0-0---------|
B|---------------------------x-X---------------------------------0-0---------|
G|------7-7------------------6-6---------------------9-9---------9-9---------|
D|------7-7------------------7-7---------------------7-7---------6-6---------|
A|------X-x------------------5-5---------------------9-9---------7-7---------|
E|------7-7------------------x-X---------------------------------------------|

       illdreamaboutyou      iwillnotdoubtytou....   time!      whoa yea



(VERSE 3) PLAY NORMAL


e|-----------------------------X---------------------------------------------|
B|-----------------------------X---------------------9-----------------------|
G|------7----------6-----------6------------6--------9-----------------------|
D|------7----------7-----------7------------X--------9-----------------------|
A|------X----------X-----------5------------7--------7-----------------------|
E|------7----------7-----------X------------5--------------------------------|
     (2 COUNT)   (2COUNT)    (4 COUNT)  (4 COUNT)  (4 COUNT)
     

e|-----------------------------X---------------------------------------------|
B|-----------------------------X---------------------------------------------|
G|------7----------6-----------6-----------9--------9------------------------|
D|------7----------7-----------7-----------7--------6------------------------|
A|------X----------X-----------5-----------9--------7------------------------|
E|------7----------7-----------X---------------------------------------------|
     (2 COUNT)   (2COUNT)    (4 COUNT)  (4 COUNT)  (4 COUNT)


e|---0---------------0---------------0-----------0------------------------------|
B|---0---------------0---------------0-----------0------------------------------|
G|---9---------------9---------------9-----------9--------7-7--6-6--6-6--6-6-6-6|
D|---7---------------7---------------9-----------6--------7-7--7-7--9-9--7-7-7-7|
A|---5---------------9---------------7-----------7--------x-x--x-x--x-x--x-x-x-x|
E|--------------------------------------------------------7-7--7-7--7-7--7-7-7-7|
 (4 COUNT)       (4 COUNT)       (2COUNT)     (2COUNT)
    no      oh       no i wont,.take you               take you

e|---0---------------0---------------0-----------0------------------------------|
B|---0---------------0---------------0-----------0------------------------------|
G|---9---------------9---------------9-----------9--------7-7--6-6--6-6--6-6-6-6|
D|---7---------------7---------------9-----------6--------7-7--7-7--9-9--7-7-7-7|
A|---5---------------9---------------7-----------7--------x-x--x-x--x-x--x-x-x-x|
E|--------------------------------------------------------7-7--7-7--7-7--7-7-7-7|
 (4 COUNT)       (4 COUNT)       (2COUNT)     (2COUNT)
    no      oh       no i wont,.take you               take you

  END WITH 

e|---5-----------------------------------------------------------------------|
B|---5-----------------------------------------------------------------------|
G|---6-----------------------------------------------------------------------|
D|---7-----------------------------------------------------------------------|
A|---5-----------------------------------------------------------------------|
E|---------------------------------------------------------------------------|



************************************

| x  Dead note

************************************

            
            
Suggest correction
Creating personal tab
Creating personal tab
You can edit any tab online and save it as your Personal.

You can edit, replace or remove any tab part or add personal notes – all changes will be seen only by you.

Personal tabs can be accessed anytime from any device, even offline.
Learn more »
comments
print report bad tab
22 comments total. Showing first comments.
0 reply
radioactiverice 10 May 01, 2006 03:21 PM

this was good. thanks. do you think you can tab out "the writhing south" by them?

+1 reply
JustOneJacob 61 Sep 20, 2006 07:12 PM

wow, this was very good and very accurate

i tip my hat to you sir

+3 reply
CrazyYaz 725 Oct 27, 2006 12:38 PM

i also tip my hat to you madam/sir/thing

great tab

guest
You may want to rate the tab now too:
select rating
Wanna post a correction for this tab? Suggest correction