Oops, an error
Loading. Please wait.

Baseball But Better Bass Tab

7 views 1 this week
no commentswrite comment
1 2 3 4 5
3 more votes to show rating
add to favorites
launch autoscroll
font size
0
reset
guitar tuner
Autoscroll
slow
fast
+/-
esc
set tempo
stop
Help us to improve Ultimate-Guitar.com Take our survey!
×
Author
Difficulty
Say Anything - Baseball But Better

Tabbed By : Ash (XxThreeCheersxX)

e-mail: burdickash@gmail.com
Tuning: Standard

Intro
G|----------------------------------------------------4-2-0---|
D|------------------------------2-2-2--------4--4-4-4-------4-|
A|-3-3-3--------5--5-5-5--------------------------------------|
E|------------------------------------------------------------|

G|-------------------------------------------------------------|
D|-------5--5-5------5--5-5-4--2-2-2-5--5-5-5-4--4-4-4-5-4-2-4-|
A|-3-3-3--------5--5-------------------------------------------| x 2
E|-------------------------------------------------------------|

Verse I
G|-----------------------------------------------------4-2-0---|
D|-----------------------------------------------------------4-|
A|-3-3-3-------------------------------------------------------|
E|-------------------------------------------------------------|

G|----------------------------------------------------4-2-0---|
D|------------------------------2-2-2--------4--4-4-4-------4-|
A|-3-3-3--------5--5-5-5--------------------------------------| x 2
E|------------------------------------------------------------|

G|-------------------------------------------------------------------------|
D|------------------------------2-2-2--------4-4-4-4-4-4-4-----------------|
A|-3-3-3--------5--5-5-5-----------------------------------5-5-5-5-5-5-5-5-|
E|-------------------------------------------------------------------------|

Chorus
G|------------------------------------------------------------------|
D|------------------------------------------------------------------|
A|-3-3-3-3-3-3-3-3-3-3-3-3-3-3-3-3------------------5-5-5-5-7-5-7-5-|
E|---------------------------------0-0-0-0-0-0-0-0------------------|

G|----------------------------------------------------------------|
D|---------5-5-5-5------------------------------------------------|
A|-3-3-3-3---------3-3-3-3-3-3-3-3-----------------5--5--5-7-5----|
E|---------------------------------0--0--0-0-0--------------------|

G|----------------------------------------------------------------|
D|----------------------------------------------------------------|
A|-3-3-3-3-3-3-3-3-3-3-3-3-3-3-3-3-----------------5--5--5-5-5----|
E|---------------------------------0--0--0-0-0--------------------|

G|-----------------------------------------------------------------|
D|-5-5-4-4-2-2---------------------5-5-4-4-2-2---------------------|
A|-------------5-5-3-3-2-2---------------------5-5-3-3-2-2---------|
E|-------------------------5-5-3-3-------------------------5-5-3-3-|

Verse II
G|------------------------------------------------------------|
D|------------------------------------------------------------|
A|-3-3-3-----------------------------------------------7-5-7--|
E|------------------------------------------------------------|

G|----------------------------------------------------4-2-0---|
D|------------------------------2-2-2--------0--0-0---------4-|
A|-3-3-3--------5--5-5-5--------------------------------------| 
E|------------------------------------------------------------|

G|-------------------------------------------------------------------------|
D|------------------------------2-2-2--------4-4-4-4-4-4-4-----------------|
A|-3-3-3--------5--5-5-5-----------------------------------5-5-5-5-5-5-5-5-|
E|-------------------------------------------------------------------------|

G|-------------------------------------------------------------|
D|-------5--5-5------5--5-5-4--2-2-2-0--0-0---5--5-5-5-5-5-5-5-|
A|-3-3-3--------5--5-------------------------------------------| 
E|-------------------------------------------------------------|

G|---------------------------------------------------------------|
D|-------5--5-5----------2-2-4-4-2-2-2-4--4-4--4-4-4-4-----------|
A|-3-3-3--------5--5-5-5-----------------------------------------|
E|---------------------------------------------------------------|

Chorus II
G|------------------------------------------------------------------|
D|------------------------------------------------------------------|
A|-3-3-3-3-3-3-3-3-3-3-3-3-3-3-3-3------------------5--5---5-7-5----|
E|---------------------------------0--0--0-0-0----------------------|

G|--------------------------------------------------------------------|
D|---------5-5-5-5-2-2-2-2--------------------------------------------|
A|-3-3-3-3-----------------5-5-5-5---------------------5--5--5-7-5----|
E|---------------------------------0--0--0-0-0------------------------|

G|----------------------------------------------------------------|
D|---------------------2-2-4-4-5----------------------------------|
A|-3-3-3-3-3-3-3-3-3-3-----------------------------5--5-5-5-5-5-5-|
E|---------------------------------0--0-0-0-0-0-0-----------------|

G|-----------------------------------------------------------------|
D|-5-5-4-4-2-2---------------------5-5-4-4-2-2---------------------|
A|-------------5-5-3-3-2-2---------------------5-5-3-3-2-2---------|
E|-------------------------5-5-3-3-------------------------5-5-3-3-|

Bridge
G|---------------------------------------------------------------|
D|---------------------------------------------------------------|
A|---------------------------------------------------------------|
E|-0~---------------------0-0-0--0-0-0~--------------------------|

(come in the second time)
G|--------------------------------------------------------------|
D|--------------------------------------------------------------|
A|----------------------5-5----3-3-3-3-3-3-3-3-2-2-2-2-2-2-2-2--|
E|-0-0----2-2----3-3--------------------------------------------|

G|--------------------------------------------------------------|
D|--------------------------------------------------------------|
A|----------------------5-5----3-3-3-3-3-3-3-3-3-3-3-3-3-3-3-3--|
E|-0-0----2-2----3-3--------------------------------------------|

G|--------------------------------------------------------|
D|--------------------------------------------------------|
A|----------------------------------------------------17\-|
E|--------------------------------------------------------|

G|------------------------------------------------------------|
D|---------------------------------2-2----4-4----5-5----7-7\--|
A|-3-3-3-3-3-3-3-3-3-3-3-3-3-3-3-3----------------------------|
E|------------------------------------------------------------|

G|-----------------------2-4-5-4-2---------------------------------|
D|-----5-5---5---5---2-5-----------2-2-2-2---------5-5-5-5---------|
A|-3-3-----3---3---3-----------------------5-5-5-5---------5-5-5-5-|
E|-----------------------------------------------------------------|

G|----------------------------------------------------------|
D|------5------5------5------5--2-2----4-4----5-5----7-7----|
A|-3--3----3-3----3-3----3-3--------------------------------|
E|----------------------------------------------------------|

G|----------------------------------------------------------|
D|------5------5----5---5-----------------------------------|
A|-3--3----3-3----3---3---3---------------------------------|
E|----------------------------------------------------------|

Final Chorus
G|---------------------------------------------------------------|
D|---------------------------------------------------------------|
A|-3-3-3-3-3-3-3-3-3-3-3-3-3-3-3-3----------------5--5--5-7-5----|
E|---------------------------------0--0--0-0-0-------------------|

G|----------------------------------------------------------------|
D|---------5-5-5-5-4-4-4-4-2-2-2-2--------------------------------|
A|-3-3-3-3-----------------------------------------5--5--5-7-5----|
E|---------------------------------0--0--0-0-0--------------------|

G|----------------------------------------------------------------|
D|---------5-5-5-5-4-4-4-4-5-5-5-5--------------------------------|
A|-3-3-3-3-----------------------------------------5--5--5-7-5----|
E|---------------------------------0--0--0-0-0--------------------|

G|----------------------------------------------------------------|
D|----------------------------------------------------------------|
A|-3-3-3-3-3-3-3-3-3-3-3-3-3-3-3-3-----------------5--5--5-5-5----|
E|---------------------------------0--0--0-0-0--------------------|

G|---------------------------------------------------------------|
D|---------------------------------------------------------------|
A|-3-3-3-3-3-3-3-3-3-3-3-3-3-3-3-3-3-3-3-3-3-3-3-3-3-3-3-3-3-3-3-|
E|---------------------------------------------------------------|

G|---------------------------------------------------------------|
D|---------------------------------------------------------------|
A|---------------------------------------------------------------|
E|-0-0-0---------0-0-0--------0-0-0--------0-0-0~----------------|

Happy playing!

| /  slide up
| \  slide down
| h  hammer-on
| p  pull-off
| ~  vibrato
| +  harmonic
| x  Mute note
Suggest correction
Give kudos to tab author, rate the tab!
1 2 3 4 5
comments
print report bad tab
guest
You may want to rate the tab now too:
select rating
Wanna post a correction for this tab? Suggest correction