Oops, an error
Loading. Please wait.

Chia-Like I Shall Grow tab

version 1
version 1

Whole song

7,099 views 1 this week
no commentswrite comment
1 2 3 4 5
1 last vote to show rating
add to favorites
×
Save as Personal and add changes to this tab that will be seen only by you. Learn more ›
×
You can save this tab as Personal to edit and correct it or add notes. All changes will be seen only by you. Learn more »
launch autoscroll
font size
0
reset
how to read this tab
guitar tuner
edit
Autoscroll
slow
fast
+/-
esc
set tempo
stop
Author
Tabbed by: Olivia (greenram)
Email: o_ramonte@yahoo.com

Tuning: Standard

e|-------------------------------------------------------------------------|
B|-------------------------------------------------------------------------|
G|-----------2---2---2-2-4---------2---2----2-2\---------------------------|
D|------4440---4---4----------4440---4-----4------4-44444-44444-4444-44----|
A|------------------------------------------------x-xxxxx-xxxxx-xxxx-xx----|
E|---3----------------------3---------------------3-33333-33333-3333-33----|
                                                pm  ..... ....  ...  .

e|-------------------------------------------------------------------------|
B|-------------------------------------------------------------------------|
G|-------------------------------------------------------------------------|
D|-4444444444444444444444444444--------------------------------------------|
A|-xxxxxxxxxxxxxxxxxxxxxxxxxxxx--------------------------------------------|
E|-3333333333333333333333333333--------------------------------------------|
pm ................

Chorus
e|-------------------------------------------|-----------------------------|
B|--0-8-7--------8-7-5-3-----------8p7p5p3-3-|--8-10-12p10-10--------------|
G|-------2h4-2-4---------444-2-4-2-----------|-----------------------------|
D|-------------------------------------------|-----------------------------|
A|-------------------------------------------|-----------------------------|
E|-------------------------------------------|-----------------------------|

verse
e|-------------------------------------------------------------------------|
B|-------------------------------------------------------------------------|
G|-------------------------------------------------------------------------|
D|--7-7--77--------555-5-54----------7-7-77----------5555555-7-999---------|
A|--5-5--55-77-999-333-3-32--7-5-22--5-5-55-77-99979-3333333-5-777---------|
E|----------55-777-----------5-3-00---------55-77757-----------------------|

"...and discard all feelings..."
e|--2-22-2-2-2-2-2-22-22-2-2-3p2p0-----------------------------------------|
B|-------------------------------------------------------------------------|
G|-------------------------------------------------------------------------|
D|-------------------------------------------------------------------------|
A|-------------------------------------------------------------------------|
E|-------------------------------------------------------------------------|

"..the stars scar my ceiling"
e|----------------------------------------------------------------------------|
B|----------------------------------------------------------------------------|
G|--------2---2---2-2-4-------------------------------------------------------|
D|----4440--4---4-------44404040----------------------------------------------|
A|----------------------------------------------------------------------------|
E|--3-------------------------------------------------------------------------|

"...photograph(bath)!..."
e|-------------------------------------------------------------------------|
B|-------------------------------------------------------------------------|
G|------8-----8-----8-----8------6-----6-----6----6------------------------|
D|----9-----9-----9-----9------7-----7-----7-----7-------------------------|
A|--7-----7-----7-----7------5-----5-----5-----5---------------------------|
E|-------------------------------------------------------------------------|

as this part of the song goes on you'll start to do this
e|-------------------------------------------------------------------------|
B|-------------------------------------------------------------------------|
G|------8-----8-----8-----8h9----6-----6-----6----6------------------------|
D|----9-----9-----9-----9------7-----7-----7-----7-------------------------|
A|--7-----7-----7-----7------5-----5-----5-----5---------------------------|
E|-------------------------------------------------------------------------|
and then just strum the actual chords
e|-------------------------------------------------------------------------|
B|-------------------------------------------------------------------------|
G|--8--6-------------------------------------------------------------------|
D|--9--7-------------------------------------------------------------------|
A|--7--5-------------------------------------------------------------------|
E|-------------------------------------------------------------------------|

thats all that i have figured out so far but i think its a good start. hopefully someone 
fill in the parts i left out (and/or fix). Please email me if you have questions, 
or corrections! o_ramonte@yahoo.com

| /  slide up
| \  slide down
| h  hammer-on
| p  pull-off
| ~  vibrato
| +  harmonic
| x  Mute note
===============================================================================

            
            
Suggest correction
Creating personal tab
Creating personal tab
You can edit any tab online and save it as your Personal.

You can edit, replace or remove any tab part or add personal notes – all changes will be seen only by you.

Personal tabs can be accessed anytime from any device, even offline.
Learn more »
Give kudos to tab author, rate the tab!
1 2 3 4 5
comments
print report bad tab
guest
You may want to rate the tab now too:
select rating
Wanna post a correction for this tab? Suggest correction