Oops, an error
Loading. Please wait.

Chia-Like I Shall Grow tab

version 2
version 2

Whole song

9,189 views 24 this week
1 commentread comment
1 2 3 4 5
x 4
add to favorites
×
Save as Personal and add changes to this tab that will be seen only by you. Learn more ›
×
You can save this tab as Personal to edit and correct it or add notes. All changes will be seen only by you. Learn more »
launch autoscroll
font size
0
reset
how to read this tab
guitar tuner
edit
Autoscroll
slow
fast
+/-
esc
set tempo
stop
Author
Difficulty
-------------------------------------------------------------------------------
                             Chia-Like I Shall Grow - Say Anything
-------------------------------------------------------------------------------

Tabbed by: lilblig7
Email: lilblig7@yahoo.com

Tuning: EADGAD 

Tabbed from this video of Jeff from Say Anything playing it: http://www.playsa.net/jeffchia.html

Rhythm might be off in a few spots, but that's what the video's for.

Intro
d|-----------------------------------------------------------------|
A|-----------------------------------x2----------------------------|
G|-----------------------------------------------------------------|
D|---4---------7---4---7---4---7---7/9----4-4-4-4-4-7/9--4-4-4-4---|
A|-----5-5-5------------------------------5-5-5-5-5------5-5-5-5---|
E|-3---------3---3---3---3---3---3--------3-3-3-3-3------3-3-3-3---|

d|-0-0-0-0-0-0-0-0--0-0-0-0-0-0-0-0------------|
A|-5-5-5-5-5-5-5-5--5-5-5-5-5-5-5-5------------|
G|---------------------------------------------|
D|-4-4-4-4-4-4-4-4--4-4-4-4-4-4-4-4--5/4/2/0---|
A|-5-5-5-5-5-5-5-5--5-5-5-5-5-5-5-5------------|
E|-3-3-3-3-3-3-3-3--0-0-0-0-0-0-0-0------------|

d|-0-0-0-0-0-0-0-0--0-0-0-0-0-0-0-0-----------|
A|-5-5-5-5-5-5-5-5--5-5-5-5-5-5-5-5-----------|
G|--------------------------------------------|
D|-4-4-4-4-4-4-4-4--4-4-4-4-4-4-4-4-----------|
A|-5-5-5-5-5-5-5-5--5-5-5-5-5-5-5-5--5/7/9/7--|
E|-3-3-3-3-3-3-3-3--0-0-0-0-0-0-0-0-----------|

1st Verse
d|---------------------------------------|
A|---------------------------------------|
G|-9-9-9/7----------7-7-7--4-------------|
D|-9-9-9/7-7/9-9-9--7-7-7--4--7-5-2-2----|
A|-7-7-7/5-7/9-9-9--5-5-5--2--7-5-2-2----|
E|---------5/7-7-7------------5-3-0-0----|

d|--------------------------------------------|
A|------------------------------------x2------|
G|-9-9-9/7------------7-7-7-4-7-9-9-9---------|
D|-9-9-9/7-7/9-9-7-9--7-7-7-4-7-9-9-9----7----|
A|-7-7-7/5-7/9-9-7-9--5-5-5-2-5-7-7-7----7----|
E|---------5/7-7-5-7---------------------5----|

Pre-Chorus
d|--0---0----------------------------------|
A|--5---5----------------------------------|
G|-----------------------------------------|
D|--4---4--5/4/2/0-------------------------|
A|--5---5----------------------------------|
E|--3---0----------------------------------|

d|-------------------------------------------------xxx---|
A|-------------------------------------------------xxx---|
G|-------------------------------------------------xxx---|
D|---4---7---4---7---4---7---7/9--4-----4-----4----xxx---|
A|----------------------------------5-----5-----5--xxx---|
E|-3---3---3---3---3---3---3----------0-----0------xxx---|

Chorus
d|-0-0-0-0-0-0-0-0---0-0-0-0-0-0-0-0------------|
A|-5-5-5-5-5-5-5-5---5-5-5-5-5-5-5-5------------|
G|----------------------------------------------|
D|-4-4-4-4-4-4-4-4---4-4-4-4-4-4-4-4--5/4/2/0---|
A|-5-5-5-5-5-5-5-5---5-5-5-5-5-5-5-5------------|
E|-3-3-3-3-3-3-3-3---0-0-0-0-0-0-0-0------------|

d|-0-0-0-0-0-0-0-0---0-0-0-0-0-0-0-0------------|
A|-5-5-5-5-5-5-5-5---5-5-5-5-5-5-5-5------------|
G|-0-0-0-0-0-0-0-0---0-0-0-0-0-0-0-0------------|
D|-4-4-4-4-4-4-4-4---4-4-4-4-4-4-4-4--5/7/9/7---|
A|-5-5-5-5-5-5-5-5---5-5-5-5-5-5-5-5------------|
E|-3-3-3-3-3-3-3-3---0-0-0-0-0-0-0-0------------|

2nd Verse
d|---------------------------------------|
A|---------------------------------------|
G|-9-9-9/7----------7-7-7--4-------------|
D|-9-9-9/7-7/9-9-9--7-7-7--4--7-5-2-2----|
A|-7-7-7/5-7/9-9-9--5-5-5--2--7-5-2-2----|
E|---------5/7-7-7------------5-3-0-0----|

d|-------------------------------------|
A|-------------------------------------|
G|-9-9-9/7------------7-7-7-4-7-9-9-9--|
D|-9-9-9/7-7/9-9-7-9--7-7-7-4-7-9-9-9--|
A|-7-7-7/5-7/9-9-7-9--5-5-5-2-5-7-7-7--|
E|---------5/7-7-5-7-------------------|

d|--------------------------------------------------------------------|
A|--------------------------------------------------------------------|
G|-9-9-9-9-9-9-7-------------------7-7-7-7-7-7-4-7-9-9/12/9/12/9/12---|
D|-9-9-9-9-9-9-7-7-9/12/9/12/9/12--7-7-7-7-7-7-4-7-9-9/12/9/12/9/12---|
A|-7-7-7-7-7-7-5-7-9/12/9/12/9/12--5-5-5-5-5-5-2-5-7-7/10/7/10/7/10---|
E|---------------5-7/10/7/10/7/10-------------------------------------|

d|------------------------------------------------------------------|
A|------------------------------------------------------------------|
G|-9-9-9-9-9-9-7-------------------7-7-7-7-7-7-4-7-9-9-9-9----------|
D|-9-9-9-9-9-9-7-7-9/12/9/12/9/12--7-7-7-7-7-7-4-7-9-9-9-9--7-------|
A|-7-7-7-7-7-7-5-7-9/12/9/12/9/12--5-5-5-5-5-5-2-5-7-7-7-7--7-------|
E|---------------5-7/10/7/10/7/10---------------------------5-------|

Chorus-same check video for rhythm/palm mute changes

Bridge
d|---------------------------------------------------|
A|---------------------------------------------------|
G|------8----8-----8-----8-----6-----6-----6-----6---|
D|---------------------------------------------------|
A|---7-----7-----7-----7-----7-----7-----7-----7-----|
E|-0-----0-----0-----0-----0-----0-----0-----0-------|

d|-----------------------------------------------------|
A|--------------------------------------------------x2-|
G|------8----8-----8-----8/9---6-----6-----6-----6-----|
D|-----------------------------------------------------|
A|---7-----7-----7-----7-----7-----7-----7-----7-------|
E|-0-----0-----0-----0-----0-----0-----0-----0---------|

d|----------------------------------------------------------------------xxx--|
A|----------------------------------------------------------------------xxx--|
G|-----8-----8-----8-----8-----3-----3-----3-----3/4-----6-----6-----6--xxx--|
D|----------------------------------------------------------------------xxx--|
A|---7-----7-----7-----7-----4-----4-----4-----4-------7-----7-----7----xxx--|
E|-9-----9-----9-----9-----2-----2-----2-----2-------5-----5-----5------xxx--|

d|-----------------------------------------------------|
A|-----------------------------------------------------|
G|------8----8-----8-----8/9----6----6-----6-----6-----|
D|-----------------------------------------------------|
A|---7-----7-----7-----7-----7-----7-----7-----7-------|
E|-0-----0-----0-----0-----0-----0-----0-----0---------|

d|------------------------------------------------------|
A|------------------------------------------------------|
G|-8-8-8-8-8--6-6-6-6-6--8-8-8-8-8--6-6-6-6-6-6-6-6-----|
D|------------------------------------------------------|
A|-7-7-7-7-7--7-7-7-7-7--7-7-7-7-7--7-7-7-7-7-7-7-7-----|
E|-0-0-0-0-0--0-0-0-0-0--0-0-0-0-0--0-0-0-0-0-0-0-0-----|

d|------------------------------------------------------------|
A|------------------------------------------------------------|
G|--------------------------3-3-3-3-3-3-3-3--6-6-6-6-6-6-6-6--|
D|-11-11-11-11-11-11-11-11------------------------------------|
A|-11-11-11-11-11-11-11-11--4-4-4-4-4-4-4-4--7-7-7-7-7-7-7-7--|
E|-9--9--9--9--9--9--9--9---2-2-2-2-2-2-2-2--5-5-5-5-5-5-5-5--|

d|-------------------------------------------------|
A|-------------------------------------------------|
G|-6-6-6--8-8-8--9-9-9--11-11-11-11-11-11-11-11----|
D|-------------------------------------------------|
A|-4-4-4--6-6-6--7-7-7--9--9--9--9--9--9--9--9-----|
E|-------------------------------------------------|

Chorus
d|-0-0-0-0-0-0-0-0---0-0-0-0-0-0-0-0------------|
A|-5-5-5-5-5-5-5-5---5-5-5-5-5-5-5-5------------|
G|----------------------------------------------|
D|-4-4-4-4-4-4-4-4---4-4-4-4-4-4-4-4--5/4/2/0---|
A|-5-5-5-5-5-5-5-5---5-5-5-5-5-5-5-5------------|
E|-3-3-3-3-3-3-3-3---0-0-0-0-0-0-0-0------------|

d|-0-0-0-0-0-0-0-0---0-0-0-0-0-0-0-0---|
A|-5-5-5-5-5-5-5-5---5-5-5-5-5-5-5-5---|
G|-------------------------------------|
D|-4-4-4-4-4-4-4-4---4-4-4-4-4-4-4-4---|
A|-5-5-5-5-5-5-5-5---5-5-5-5-5-5-5-5---|
E|-3-3-3-3-3-3-3-3---0-0-0-0-0-0-0-0---|

Outro
d|------------------------------------------------------|
A|-------7-----------7-------------7-7-7-7--------------|
G|-------7-----------7----------------------------------|
D|-------------5-5-5----12-11-9-7--5-5-5-5--12-11-9-7---|
A|-5-5-5---7/9---------------------7-7-7-7--------------|
E|----------------------10-9--7-5-----------10-9--7-5---|

d|----------------------------------------------|
A|-------7-----------7------------7-7-7-7-------|
G|-------7-----------7--------------------------|
D|-------------5-5-5---12-11-9-7--5-5-5-5-------|
A|-5-5-5---7/9--------------------7-7-7-7-------|
E|---------------------10-9--7-5----------------|

d|----------------------------------------------------------|
A|----------------------------------------------------------|
G|----------------------------------------------------------|
D|---4-------4------4-------4------4-------4------4---------|
A|-----5-5-5----------5-5-5----------5-5-5----------5-5-5---|
E|-3-----------3--3-----------3--3-----------3--3-----------|

| /  slide up
| \  slide down
| h  hammer-on
| p  pull-off
| ~  vibrato
| +  harmonic
| x  Mute note
===============================================================================

            
            
Suggest correction
Creating personal tab
Creating personal tab
You can edit any tab online and save it as your Personal.

You can edit, replace or remove any tab part or add personal notes – all changes will be seen only by you.

Personal tabs can be accessed anytime from any device, even offline.
Learn more »
comments
print report bad tab
1 comment total.
0 reply
lilblig7 73 Jan 18, 2008 09:50 AM

ahhh! In the Intro the 5/7/9/7 should be on the d string.

guest
You may want to rate the tab now too:
select rating
Wanna post a correction for this tab? Suggest correction