Oops, an error
Loading. Please wait.

Died A Jew bass

5,543 views 9 this week
2 commentsread comments
1 2 3 4 5
1 last vote to show rating
add to favorites
×
Save as Personal and add changes to this tab that will be seen only by you. Learn more ›
×
You can save this tab as Personal to edit and correct it or add notes. All changes will be seen only by you. Learn more »
launch autoscroll
font size
0
reset
guitar tuner
edit
Autoscroll
slow
fast
+/-
esc
set tempo
stop
Author
Difficulty

Intro x2

--------------------------2---------------|
------------2h4p2---2-4-5-----------------|
------------------5-----------------------|
-33333333-3-------------------------------|


-------4----2-----------------------------|
---------------4------4/5-----------------|
-222-2---22--22---222---------------------|
------------------------------------------|

--------------------------2---------------|
------------2h4p2---2-4-5-----------------|
------------------5-----------------------|
-33333333-3-------------------------------|

------------------------------------------|
------------------------------------------|
-22222222--2-2222-00----------------------|
------------------------------------------|

--------------------------2---------------|
------------2h4p2---2-4-5-----------------|
------------------5-----------------------|
-33333333-3-------------------------------|

--------------4----2----------------------|
------------------------4/5---------------|
-2222-22222-2---22---22-------------------|
------------------------------------------|


--------------------------2---------------|
------------2h4p2---2-4-5-----------------|
------------------5-----------------------|
-33333333-3-------------------------------|

------------------------------------------|
------------------------------------------|
-22222222--2-2222-00----------------------|
------------------------------------------|


Verse

------------------------------------------|
------------------------------------------|
-3-3-333--5-55-555--7-7-77-5-7-777-77-55--|
------------------------------------------|


------------------------------------------|
----------------------------2-2-2-542-----|
-3-3-333--5-55-555--2-2-222----------5----|
------------------------------------------|


-------------------------------------------|
----5--------7----------97-----------------|
-33--3-3--55---5-5---77---109--7-7--1097---|
----------------------------------------10-|

-------------------------------------------|
----5--------7-------------22222 00--------|
-33--3-3--55---5-5---22222-----------------|
-------------------------------------------|

Chorus

--------------------------2---------------|
------------2h4p2---2-4-5-----------------|
------------------5-----------------------|
-33333333-3-------------------------------|


--------------4----2-----------------------|
------------------------4------------------|
-2222-22222-2---22---22--------------------|
-------------------------------------------|

--------------------------2---------------|
------------2h4p2---2-4-5-----------------|
------------------5-----------------------|
-33333333-3-------------------------------|


------------------------------------------|
------------------------------------------|
-22222222--2-2222-00----------------------|
------------------------------------------|

Verse

------------------------------------------|
------------------------------------------|
-3-3-333--5-55-555--7-7-77-5-7-777-77-55--|
------------------------------------------|


------------------------------------------|
----------------------------2-2-2-542-----|
-3-3-333--5-55-555--2-2-222----------5----|
------------------------------------------|

---------------------------------------------|
----5--5-----7--7--------97------------------|
-33--3----55---5-5---77---109--7-7--1097-----|
----------------------------------------10---|

-------------------------------------------|
----5--------7-------------22222 00--------|
-33--3-3--55---5-5---22222-----------------|
-------------------------------------------|


Chorus x2

--------------------------2---------------|
------------2h4p2---2-4-5-----------------|
------------------5-----------------------|
-33333333-3-------------------------------|


--------------4----2-----------------------|
------------------------4------------------|
-2222-22222-2---22---22--------------------|
-------------------------------------------|

--------------------------2---------------|
------------2h4p2---2-4-5-----------------|
------------------5-----------------------|
-33333333-3-------------------------------|

------------------------------------------|
------------------------------------------|
-22222222--2-2222-00----------------------|
------------------------------------------|


Outro

-------------------------------------|
-------------------------------------|
-33-333-55-555-77-77-5-7~~~~~--------|
-------------------------------------|
Suggest correction
Creating personal tab
Creating personal tab
You can edit any tab online and save it as your Personal.

You can edit, replace or remove any tab part or add personal notes – all changes will be seen only by you.

Personal tabs can be accessed anytime from any device, even offline.
Learn more »
Give kudos to tab author, rate the tab!
1 2 3 4 5
comments
print report bad tab
2 comments total.
0 reply
Seney 419 Jul 25, 2008 01:45 PM

Yo ma dude this is great, could you do more from the new album?

0 reply
flannery710 10 Aug 14, 2009 01:59 PM

The intro doesn't sound correct at all.

This is what is played:

Intro x2

----------------------2--------------------|
------------2----0-2-4---------------------|
---------------2--------------------------|
-33333333-3--3---------------------------|

-------4--2-----------------------------|
-------------4----2-0-------------------|
-2222-2-22-22--22-----------------------|
----------------------------------------|

guest
You may want to rate the tab now too:
select rating
Wanna post a correction for this tab? Suggest correction