Oops, an error
Loading. Please wait.

Hate Everyone bass

1,849 views 1 this week
no commentswrite comment
1 2 3 4 5
3 more votes to show rating
add to favorites
×
Save as Personal and add changes to this tab that will be seen only by you. Learn more ›
×
You can save this tab as Personal to edit and correct it or add notes. All changes will be seen only by you. Learn more »
launch autoscroll
font size
0
reset
guitar tuner
edit
Autoscroll
slow
fast
+/-
esc
set tempo
stop
Hate Everyone - Say Anything
(note-i know that most of this is pretty basic, so feel free to leave comments
on what i've left out)
another neat little song :)
(longer than a minute this time too!! :D)

Eb Tuning

Intro part starts around 00:10

Gb|------------------------------------------------|
Db|------------------------------------------------|
Ab|-----------22222222--55555555--1010101010101010-|
Eb|-33333333---------------------------------------|

Verse 1:

Gb|-------------------------------------------------------|
Db|-------------------------------------------------------|
Ab|------------3-------------------3----------------------|
Eb|-3-33333333---3--3-333-33333333---3--33-3-333--333-00--|

Gb|--------------------|
Db|--------------------|
Ab|--------------------|
Eb|-55555555/88888888--|

Pre Chorus:
(honestly cant hear this part >_<)

Chorus:

Gb|-------------------------------------------------------|
Db|-------------------------------------------------------|
Ab|------------3-------------------3----------------------|
Eb|-3-33333333---3--3-333-33333333---3--33-3-333--333-00--|

Gb|---------------------|
Db|---------------------|
Ab|---------------------|
Eb|-5555/8888\33333333--|

Verse 2:

Gb|-----------------------------------------------|
Db|-----------------------------------------------|
Ab|----------3-----------------3------------------|
Eb|-3----------3-3--333----------3-333-333-33-00--|

Gb|--------------------|
Db|--------------------|
Ab|--------------------|
Eb|-55555555/88888888--|

Verse 1 again
Pre Chorus again
Chorus

Bridge

Gb|--------------------|
Db|--------------------|
Ab|--------------------|
Eb|-0x16/3x16----------|

Gb|--------------|
Db|--------------|
Ab|--------------| Repeat 3 times then
Eb|-33333333-----|

Gb|---------------------|
Db|---------------------|
Ab|---------------------|  Do this little part
Eb|-5555/8888\33333333--|

Chorus

Feel free to ask me any questions at my e-mail
loopyhawk668@hotmail.com

            
            
Suggest correction
Creating personal tab
Creating personal tab
You can edit any tab online and save it as your Personal.

You can edit, replace or remove any tab part or add personal notes – all changes will be seen only by you.

Personal tabs can be accessed anytime from any device, even offline.
Learn more »
Give kudos to tab author, rate the tab!
1 2 3 4 5
comments
print report bad tab
guest
You may want to rate the tab now too:
select rating
Wanna post a correction for this tab? Suggest correction