Oops, an error
Loading. Please wait.

I Want To Know Your Plans Tab

version 2
version 2

Whole song

Interactive

189,906 views 246 this week
18 commentsread comments
1 2 3 4 5
excellent!
x 42
add to favorites
launch autoscroll
font size
0
reset
how to read this tab
guitar tuner
Tab Pro tools
  • play this tab
  • loop segment
  • change instrument
  • show fretboard
  • metronome
Autoscroll
slow
fast
+/-
esc
set tempo
stop
Contributor
Difficulty
intermediate
-------------------------------------------------------------------------------
		 I Want to Know Your Plans - Say Anything
-------------------------------------------------------------------------------
Tabbed by: Peter Z. Ali
Email: pza151@stu.aii.edu

------>>>>>>>     This tab is from the acoustic set he plays on mtvLIVE.COM 
you can find these songs to play along with at

http://www.mtv.com/music/#/music/live/detail.jhtml?contentId=1525316

CONFIDENT THAT THIS TAB CANNOT BE ANY BETTER (actually this one could be 
played in many different variations, max bemis for some reason plays a few 
notes here and there differently than me, but i found it easier this way-
and IT'S STILL COMPLETELY CORRECT!)

this took me friekin forever
yet its such a simple song- do not be intimidated by its length, its 
mostly repeats

FIGURE OUT RHYTHM FOR YOURSELF at above link

Tuning:Normal


  {INTRO} [he really plays it like this except for all opens on A are 
           ACTUALLY played on the 5th fret oF E {which is a.k.a A}]
e|---------------------------------------------------------------------------|
B|---------------------------------------------------------------------------|
G|------0----------0-----------0----------0----------------------------------|
D|------------------------0----------0---------------(repeat as necessary)--|
A|---------0-0-2-3----3-3---2----2-2---0----0--------------------------------|
E|---3-----------------------------------------5/7\5-------------------------|
  
 AFTER HE PLUCKS THESE NOTES, HE STRUMS THEM IN A FREESTYLE SORT OF PATTERN, 
  PLAY AROUND AND YOU'LL PICK IT UP

e|----------------------------------------------------x-------------x--------|
B|----------------------------------------------------x-------------0--------|
G|----------------------------------------------------5-------------5--------|
D|------4-4-----4-X-4-H-5---(REPEAT 5 MORE TIMES)-----5-------------4-------|
A|------5-5--3--5-X-5---------------------------------x-------------5--------|
E|---3------------------------------------------------5-------------x--------|
  
  I want to know              your plans..............WILL I be for-given?

e|---------------------------------------------------------------------------|
B|---------------------------------------------------------------------------|
G|-------5-5-5---5-5-5---5-5-5-----------------------------------------------|
D|-------5-5-5---5-5-5---5-5-5-------------------5-5-------5-5--5------5-----|
A|-------0-0-0---2-2-2---3-3-3-----------------------0-2-3-3-3--2-0----5-----|
E|---------------------------------------------3--------------------3--3-----|

IFYOUWANT ROSES			then go buy a bouquet

e|-----------------------------------------------0-------0-------------------|
B|-----------------------------------------------0-------0-------------------|
G|-------5-5-5---5-5-5---5-5-5-------------------7---7---7-------------------|
D|-------5-5-5---5-5-5---5-5-5-------------------5---5---5-------------------|
A|-------0-0-0---2-2-2---3-3-3-------------------7---5---7-------------------|
E|-----------------------------------------------x-------x-------------------|

justwont cut it			than what can I say

e|-----x-----------------0---------x-----------------------------------------|
B|-----x-----------------0---------x-----------------------------------------|
G|-----7-----------------7---------7-------------------5--4---4--------------|
D|-----5-----------------5---------5-------------------5--5---7--------------|
A|-----3-----------------7---------5-------------------x--x---x--------------|
E|-----x-----------------0---------x-------------------5--5---5--------------|

  *Your whatkeepsme be ...lievin....the worldsnotgone...dead

*go to link at top of page, you will enjoy it and it will help you find the 
rhythm for these chords

e|-----x-----------------0---------x-----------------------------------------|
B|-----x-----------------0---------x-----------------------------------------|
G|-----7-----------------7---------7-------------------5--4---4--------------|
D|-----5-----------------5---------5-------------------5--5---7--------------|
A|-----3-----------------7---------5-------------------x--x---x--------------|
E|-----x-----------------0---------x-------------------5--5---5--------------|

       Strength inmy.....bones.....words in     my     head

e|-----x-----------------0---------x-----------------------------------------|
B|-----x-----------------0---------x-----------------------------------------|
G|-----7-----------------7---------5---------5-------------------------------|
D|-----5-----------------5---------5---------5-------------------------------|
A|-----3-----------------7---------3-----0---3-------------------------------|
E|-----x-----------------0---------3-----------------------------------------|

they   pour out to ......paper     its  all  for you

e|----------------------------------------------------x-------------x--------|
B|----------------------------------------------------x-------------0--------|
G|----------------------------------------------------5-------------5--------|
D|------4-4-----4-X-4-H-5---(REPEAT 5 MORE TIMES)-----5-------------4-------|
A|------5-5--3--5-X-5---------------------------------x-------------5--------|
E|---3------------------------------------------------5-------------x--------|

   i want to know     your   fears		      Heart stay    here?

e|---------------------------------------------------------------------------|
B|---------------------------------------------------------------------------|
G|-------5-5-5---5-5-5---5-5-5-----------------------------------------------|
D|-------5-5-5---5-5-5---5-5-5-------------------5-5-------5-5--5------5-----|
A|-------0-0-0---2-2-2---3-3-3-----------------------0-2-3-3-3--2-0----5-----|
E|---------------------------------------------3--------------------3--3-----|

could forgive me		forbeing so     brash


e|-----------------------------------------------0-------0-------------------|
B|-----------------------------------------------0-------0-------------------|
G|-------5-5-5---5-5-5---5-5-5-------------------7---7---7-------------------|
D|-------5-5-5---5-5-5---5-5-5-------------------5---5---5-------------------|
A|-------0-0-0---2-2-2---3-3-3-------------------7---5---7-------------------|
E|-----------------------------------------------x-------x-------------------|

meorwhip  me			I'd savour     each lash

e|-----x-----------------0---------x-----------------------------------------|
B|-----x-----------------0---------x--------------------------------(repeat--|
G|-----7-----------------7---------7-------------------5--4---4------for-----|
D|-----5-----------------5---------5-------------------5--5---7-----rest-of--|
A|-----3-----------------7---------5-------------------x--x---x------chorus)-|
E|-----x-----------------0---------x-------------------5--5---5--------------|

  *Your whatkeepsme be ...lievin....the worldsnotgone...dead

*go to link at top of page, you will enjoy it and it will help you find the 
rhythm for these chords

e|-----x-----------------0---------x-----------------------------------------|
B|-----x-----------------0---------x-----------------------------------------|
G|-----7-----------------7---------7-------------------5--4---4--------------|
D|-----5-----------------5---------5-------------------5--5---7--------------|
A|-----3-----------------7---------5-------------------x--x---x--------------|
E|-----x-----------------0---------x-------------------5--5---5--------------|

       Strength inmy.....bones.....words in     my     head

e|-----x-----------------0---------x-----------------------------------------|
B|-----x-----------------0---------x-----------------------------------------|
G|-----7-----------------7---------5---------5-------------------------------|
D|-----5-----------------5---------5---------5-------------------------------|
A|-----3-----------------7---------3-----0---3-------------------------------|
E|-----x-----------------0---------3-----------------------------------------|

they   pour out to ......paper     its  all  for you

e|--3-3-3--3-3-3-----3-3-3--3--3---u-3-s-----3-3-3--3-3-3-----3-3-3----------|
B|--3-3-3--3-3-3-----3-3-3--3--3---p-3-t-----3-3-3--3-3-3-----3-3-3----------|
G|--x-x-x--x-x-x-----0-0-0--0--0-----x-r-----0-0-0--0-0-0-----0-0-0----------|
D|--2-2-2--2-2-2-----2-2-2--2--2-----0-o-----2-2-2--2-2-2-----0-0-0----------|
A|--2-2-2--2-2-2-----0-0-0--0--0-----2-k-----3-3-3--3-3-3-----2-2-2----------|
E|--0-0-0--0-0-0-----x-x-x--x--x-----0-e-----x-x-x--x-x-x-----3-3-3--2-3-2---|

  	    no more..fighting  this  is.....only awasteofour  time

e|--3-3-3--3-3-3-----3-3-3--3--3---u-3-s-----3-3-3--3-3-3-----x------x-------|
B|--3-3-3--3-3-3-----3-3-3--3--3---p-3-t-----3-3-3--3-3-3-----x------x-------|
G|--x-x-x--x-x-x-----0-0-0--0--0-----x-r-----0-0-0--0-0-0-----4------4-------|
D|--2-2-2--2-2-2-----2-2-2--2--2-----0-o-----0-0-0--0-0-0-----5------5-------|
A|--2-2-2--2-2-2-----0-0-0--0--0-----2-k-----3-3-3--3-3-3-----4------3-------|
E|--0-0-0--0-0-0-----x-x-x--x--x-----0-e-----x-x-x--x-x-x-----x--------------|

         causesoon...leavin'   will  this    strength...... mine hi hi hine

e|---------------------------------------------------------------------------|
B|---------------------------------------------------------------------------|
G|---4H5P4-------------------------------------------------------------------|
D|---------5/7\5--------------------(PLAY BEGGINING/INTRO SEGMENT)----------|
A|---------------5/7\5-------------------------------------------------------|
E|---------------------5/7\5--3----------------------------------------------|


e|---------------------------------------------------------------------------|
B|---------------------------------------------------------------------------|
G|----------------------------------------------------------5-5-5---5-5-5-5-|
D|--------5-5-5-5-5-5--5-5-5--(repeat-2 more times)--5-5-5--5-5-5---5-5-5-5-|
A|------0-2/3--3-2-2-0-0-0-0-------------------------5-5-5--0-0-0---3-3-3-3-|
E|----3----------------------------------------------3-3-3------------------|

     ILL be there for you			      TILL I ROT! (crescendo)

e|-----x-----------------0---------x-----------------------------------------|
B|-----x-----------------0---------x-----------------------------------------|
G|-----7-----------------7---------7-------------------5--4---4--------------|
D|-----5-----------------5---------5-------------------5--5---7--------------|
A|-----3-----------------7---------5-------------------x--x---x--------------|
E|-----x-----------------0---------x-------------------5--5---5--------------|

  *Your whatkeepsme be ...lievin....the worldsnotgone...dead

*go to link at top of page, you will enjoy it and it will help you find the 
rhythm for these chords

e|-----x-----------------0---------x-----------------------------------------|
B|-----x-----------------0---------x-----------------------------------------|
G|-----7-----------------7---------7-------------------5--4---4--------------|
D|-----5-----------------5---------5-------------------5--5---7--------------|
A|-----3-----------------7---------5-------------------x--x---x--------------|
E|-----x-----------------0---------x-------------------5--5---5--------------|

       Strength inmy.....bones.....words in     my     head

e|-----x-----------------0---------x-----------------------------------------|
B|-----x-----------------0---------x-----------------------------------------|
G|-----7-----------------7---------5---------5-------------------------------|
D|-----5-----------------5---------5---------5-------------------------------|
A|-----3-----------------7---------3-----0---3-------------------------------|
E|-----x-----------------0---------3-----------------------------------------|

they   pour out to ......paper     its  all  for you

 
ANDY QUESTIONS OR COMMENTS PLLLLLEASE EMAIL ME


| /  slide up
| \  slide down
| h  hammer-on
| p  pull-off
| ~  vibrato
| +  harmonic
| x  Mute note
===============================================================================
comments
print report bad tab
18 comments total. Showing first comments.
-2 reply
longliveacdc wrote on July 31 2006, 04:20 pm

woah first comment, kewl luv the tab great song great band thanks a lot

0 reply
glazeglaze wrote on August 24 2006, 09:58 pm

it's iffy in most parts

0 reply
EveryAcidDealer wrote on November 18 2006, 11:15 pm

I love you in a non gay way

I want to post or [tab]
guest
You may want to rate the tab now too:
select rating
Please do not post tabs as comments. Select "correction" instead!