Oops, an error
Loading. Please wait.

Last Great Punk Rock Song tab

version 2
version 2

Whole song

Interactive

610 views 1 this week
no commentswrite comment
1 2 3 4 5
3 more votes to show rating
add to favorites
×
Save as Personal and add changes to this tab that will be seen only by you. Learn more ›
×
You can save this tab as Personal to edit and correct it or add notes. All changes will be seen only by you. Learn more »
launch autoscroll
font size
0
reset
how to read this tab
guitar tuner
edit
Autoscroll
slow
fast
+/-
esc
set tempo
stop
Author
Difficulty
#----------------------------------PLEASE NOTE---------------------------------#
#This file is the author's own work and represents their interpretation of the #
#song. You may only use this file for private study, scholarship, or research. #
#------------------------------------------------------------------------------#

THE LAST GREAT PUNK ROCK SONG
As recorded by Say Anything
(From the 2001 Album BASEBALL)

Transcribed by Whoabot
        

Words by Max Bemis Music by Say Anything
Arranged by Say Anything

Gtr I (E A D G B E) - 'Guitar I'
Gtr II (E A D G B E) - 'Guitar II'
Gtr III (E A D G B E) - 'Guitar III'
Gtr IV (E A D G B E) - 'Guitar I (Clean)'
Gtr V (E A D G B E) - 'Guitar II (Clean)'
Gtr VI (E A D G B E) - 'Pickslide Sound Effect'

 Intro
  Q=215
  N.C.
 4/4
  Gtrs I, II   Gtr VI
               TP
  Wx3          W
|------------|-------|
|------------|-------|
|------------|-x\----|
|------------|-x\----|
|------------|-x\----|
|------------|-------|


  Q=200
  B5                      E5
  Gtr I
  W          +W           W          +W
|----------|------------|----------|--------|
|----------|------------|----------|--------|
|-4--------|-(4)--------|-4--------|-(4)----|
|-x--------|------------|-x--------|--------|
|-2--------|-(2)--------|-2--------|-(2)----|
|----------|------------|----------|--------|
|
| Gtr II
| W          +W           W          +W
|----------|------------|----------|--------|
|----------|------------|----------|--------|
|-4--------|-(4)--------|----------|--------|
|-4--------|-(4)--------|-2--------|-(2)----|
|-2--------|-(2)--------|-2--------|-(2)----|
|-2--------|-(2)--------|-0--------|-(0)----|


  G#5            F#5            E5
  H.      +q     H.      +q     E  E E E E E E E   q  H.
|--------------|--------------|------------------|----------||
|--------------|--------------|------------------|----------||
|--------------|-4-------(4)--|-4--4-4-4-4-4-4-4-|-4--------||
|-6-------(6)--|-x------------|-x--x-x-x-x-x-x-x-|-x--------||
|-6-------(6)--|-2-------(2)--|-2--2-2-2-2-2-2-2-|-2--------||
|-4-------(4)--|--------------|------------------|----------||
|
| H.      +q     H.      +q     E  E E E E E E E   q  H.
|--------------|--------------|------------------|----------||
|--------------|--------------|------------------|----------||
|--------------|--------------|------------------|----------||
|-6-------(6)--|-4-------(4)--|-2--2-2-2-2-2-2-2-|-2--------||
|-6-------(6)--|-4-------(4)--|-2--2-2-2-2-2-2-2-|-2--------||
|-4-------(4)--|-2-------(2)--|-0--0-0-0-0-0-0-0-|-0--------||
|
| Gtr VI
|                               TP
| W              W              W                  W
|--------------|--------------|------------------|----------||
|--------------|--------------|------------------|----------||
|--------------|--------------|-x\---------------|----------||
|--------------|--------------|-x\---------------|----------||
|--------------|--------------|-x\---------------|----------||
|--------------|--------------|------------------|----------||


 GOOOO!
  B5
  E Q  E E Q  E   E Q  E E Q  E
|---------------|---------------|
|---------------|---------------|
|-4-4--4-6-6--6-|-8-8--8-6-6--6-|
|-x-x--x-x-x--x-|-x-x--x-x-x--x-|
|-2-2--2-4-4--4-|-6-6--6-4-4--4-|
|---------------|---------------|
|
| E Q  E E Q  E   E Q  E E Q  E
|---------------|---------------|
|---------------|---------------|
|-4-4--4-4-4--4-|-4-4--4-4-4--4-|
|-4-4--4-4-4--4-|-4-4--4-4-4--4-|
|-2-2--2-2-2--2-|-2-2--2-2-2--2-|
|---------------|---------------|


  E5
                                                    PM
   E   Q    E   E   Q    E     E   Q    E   E   Q   E
|---------------------------|-------------------------|
|---------------------------|-------------------------|
|--4---4----4---6---6----6--|--8---8----8---6---6-----|
|--x---x----x---x---x----x--|--x---x----x---x---x---x-|
|--2---2----2---4---4----4--|--6---6----6---4---4---x-|
|---------------------------|-------------------------|
|
|                                                   PM
|  E   Q    E   E   Q    E     E   Q    E   E   Q   E
|---------------------------|-------------------------|
|---------------------------|-------------------------|
|--9---9----9---9---9----9--|--9---9----9---9---9-----|
|--9---9----9---9---9----9--|--9---9----9---9---9---x-|
|--7---7----7---7---7----7--|--7---7----7---7---7---x-|
|-(0)-(0)--(0)-(0)-(0)--(0)-|-(0)-(0)--(0)-(0)-(0)--4-|


  G#5               F#5
  PM            PM--|            PM
  E Q  a E E Q  E   E Q   E E Q  E
|-----------------|----------------|
|-----------------|----------------|
|---4--4s6-6-6----|---8--\6-4-4----|
|-x-x--x---x-x--x-|-x-x---x-x-x--x-|
|-x-2--2s4-4-4--x-|-x-6--\4-2-2--x-|
|-----------------|----------------|
|
| PM            PM--|
| E Q    E E Q  E   E Q   E E Q  E
|-----------------|----------------|
|-----------------|----------------|
|-----------------|----------------|
|-x-6----6-6-6--x-|-x-4---4-4-4----|
|-x-6----6-6-6--x-|-x-4---4-4-4--4-|
|-4-4----4-4-4--2-|-2-2---2-2-2--2-|


  E5
   E  Q   E  E  Q   E    E  Q   E  E  Q   E
|---------------------|----------------------|
|---------------------|----------------------|
|-16-16--16-15-15--15-|-13-13--13-11-11--11--|
|--x--x---x--x--x---x-|--x--x---x--x--x---x--|
|-14-14--14-13-13--13-|-11-11--11--9--9---9--|
|---------------------|----------------------|
|
|  E  Q   E  E  Q   E    E  Q   E  E  Q   E
|---------------------|----------------------|
|---------------------|----------------------|
|---------------------|----------------------|
|--2--2---2--2--2---2-|--2--2---2--2--2---2--|
|--2--2---2--2--2---2-|--2--2---2--2--2---2--|
|--0--0---0--0--0---0-|--0--0---0--0--0---0--|


  B5
  E Q  E E Q  E   E Q  E E Q  E
|---------------|---------------|
|---------------|---------------|
|-4-4--4-6-6--6-|-8-8--8-6-6--6-|
|-x-x--x-x-x--x-|-x-x--x-x-x--x-|
|-2-2--2-4-4--4-|-6-6--6-4-4--4-|
|---------------|---------------|
|
| E Q  E E Q  E   E Q  E E Q  E
|---------------|---------------|
|---------------|---------------|
|-4-4--4-4-4--4-|-4-4--4-4-4--4-|
|-4-4--4-4-4--4-|-4-4--4-4-4--4-|
|-2-2--2-2-2--2-|-2-2--2-2-2--2-|
|---------------|---------------|


  E5
   E   Q    E   E   Q    E     E   Q    E   E   Q    E
|---------------------------|---------------------------|
|---------------------------|---------------------------|
|--4---4----4---6---6----6--|--8---8----8--11--11---11--|
|--x---x----x---x---x----x--|--x---x----x---x---x----x--|
|--2---2----2---4---4----4--|--6---6----6---9---9----9--|
|---------------------------|---------------------------|
|
|  E   Q    E   E   Q    E     E   Q    E   E   Q    E
|---------------------------|---------------------------|
|---------------------------|---------------------------|
|--9---9----9---9---9----9--|--9---9----9---9---9----9--|
|--9---9----9---9---9----9--|--9---9----9---9---9----9--|
|--7---7----7---7---7----7--|--7---7----7---7---7----7--|
|-(0)-(0)--(0)-(0)-(0)--(0)-|-(0)-(0)--(0)-(0)-(0)--(0)-|


  G#5             F#5
  E E E E q  Q    E E E E q  Q
|---------------|---------------|
|---------------|---------------|
|-4-4-4-4S6-----|-8-8-8-8S4-----|
|-x-x-x-x-x-----|-x-x-x-x-x-----|
|-2-2-2-2S4-----|-6-6-6-6S2-----|
|---------------|---------------|
|
| E E E E q  Q    E E E E q  Q
|---------------|---------------|
|---------------|---------------|
|---------------|---------------|
|-6-6-6-6-6-----|-4-4-4-4-4-----|
|-6-6-6-6-6-----|-4-4-4-4-4-----|
|-4-4-4-4-4-----|-2-2-2-2-2-----|


  E5                        F#5
   E  E  E  E  E  E  E  E    E  Q   Q      Q.
|-------------------------|----------------------||
|-------------------------|----------------------||
|-16-16-16-16-16-16-16-16-|-16-16--16-----15-----||
|--x--x--x--x--x--x--x--x-|--x--x---x------x-----||
|-14-14-14-14-14-14-14-14-|-14-14--14-----13-----||
|-------------------------|----------------------||
|
|                                          PM-|
|  E  E  E  E  E  E  E  E    H        +E   E  q
|-------------------------|----------------------||
|-------------------------|----------------------||
|-------------------------|----------------------||
|--2--2--2--2--2--2--2--2-|--4--------(4)--x--x--||
|--2--2--2--2--2--2--2--2-|--4--------(4)--x--x--||
|--0--0--0--0--0--0--0--0-|--2--------(2)--2--2--||


 Verse
  B5
                >
   W           +W            +W            +W
|-----------|-------------|-------------|---------|
|-----------|-------------|-------------|---------|
|-16--------|-(16)--------|-(16)--------|-(16)----|
|--x--------|-------------|-------------|---------|
|-14--------|-(14)--------|-(14)--------|-(14)----|
|-----------|-------------|-------------|---------|
|
|               >
|  W           +W            +W            +W
|-----------|-------------|-------------|---------|
|-----------|-------------|-------------|---------|
|--4--------|--(4)--------|--(4)--------|--(4)----|
|--4--------|--(4)--------|--(4)--------|--(4)----|
|--2--------|--(2)--------|--(2)--------|--(2)----|
|-----------|-------------|-------------|---------|


               E5
                                           PM---|
  Wx2          W                 H      E  E  E E
|------------|-----------------|------------------|
|------------|-----------------|------------------|
|------------|-----------------|------------------|
|------------|-----------------|----------(x)-x-x-|
|------------|-----------------|----------(x)-x-x-|
|------------|-----------------|------------------|
|
| Wx2          E E E E E E E E   Q  H.
|------------|-----------------|------------------|
|------------|-----------------|------------------|
|------------|-----------------|------------------|
|------------|-9-9-9-9-9-9-9-9-|-9----------------|
|------------|-7-7-7-7-7-7-7-7-|-7----------------|
|------------|-0-0-0-0-0-0-0-0-|-0----------------|


  B5                      N.C.
  W          +W           E Q  q  Q.     E Q  q  Q.
|----------|------------|--------------|--------------|
|----------|------------|--------------|--------------|
|-4--------|-(4)--------|-9-9--9-------|-8-8--8-------|
|-4--------|-(4)--------|-x-x--x-------|-x-x--x-------|
|-2--------|-(2)--------|-7-7--7-------|-6-6--6-------|
|----------|------------|--------------|--------------|
|
| W          +W           E Q  q  Q.     W
|----------|------------|--------------|--------------|
|----------|------------|--------------|--------------|
|-4--------|-(4)--------|-9-9--9-------|--------------|
|-4--------|-(4)--------|-x-x--x-------|--------------|
|-2--------|-(2)--------|-7-7--7-------|--------------|
|----------|------------|--------------|--------------|


  G#5             F#5             E5                F#5
  Gtrs I, II
  E E E E q  Q    E E E E q  Q    E E E E E E E E   q  H.
|---------------|---------------|-----------------|----------|
|---------------|---------------|-----------------|----------|
|---------------|---------------|-----------------|----------|
|-6-6-6-6-6-----|-4-4-4-4-4-----|-2-2-2-2-2-2-2-2-|-4--------|
|-6-6-6-6-6-----|-4-4-4-4-4-----|-2-2-2-2-2-2-2-2-|-4--------|
|-4-4-4-4-4-----|-2-2-2-2-2-----|-0-0-0-0-0-0-0-0-|-2--------|


  B5                              E5
  Gtr I
  E Q  E E Q  E   E Q  E E Q  E   E Q  E E Q  E   E Q  Q  Q  E
|---------------|---------------|---------------|--------------|
|---------------|---------------|---------------|--------------|
|-4-4--4-4-4--4-|-3-3--3-3-3--3-|-4-4--4-4-4--4-|-3-3--3--3--3-|
|-x-x--x-x-x--x-|-x-x--x-x-x--x-|-x-x--x-x-x--x-|-x-x--x--x--x-|
|-2-2--2-2-2--2-|-1-1--1-1-1--1-|-2-2--2-2-2--2-|-1-1--1--1--1-|
|---------------|---------------|---------------|--------------|
|
| Gtr II
| E Q  E E Q  E   E Q  E E Q  E   E Q  E E Q  E   E Q  Q  Q  E
|---------------|---------------|---------------|--------------|
|---------------|---------------|---------------|--------------|
|-4-4--4-4-4--4-|-4-4--4-4-4--4-|---------------|--------------|
|-4-4--4-4-4--4-|-4-4--4-4-4--4-|-2-2--2-2-2--2-|-2-2--2--2--2-|
|-2-2--2-2-2--2-|-2-2--2-2-2--2-|-2-2--2-2-2--2-|-2-2--2--2--2-|
|---------------|---------------|-0-0--0-0-0--0-|-0-0--0--0--0-|


  G#5             F#5             E5
  E Q  E E Q  E   E Q  E E Q  E   E Q  E E Q  E   Q  H.
|---------------|---------------|---------------|----------|
|---------------|---------------|---------------|----------|
|-4-4--4-6-6--6-|-3-3--3-3-3--3-|-4-4--4-4-4--4-|-4--------|
|-x-x--x-x-x--x-|-x-x--x-x-x--x-|-x-x--x-x-x--x-|-x--------|
|-2-2--2-4-4--4-|-1-1--1-1-1--1-|-2-2--2-2-2--2-|-2--------|
|---------------|---------------|---------------|----------|
|
| E Q  E E Q  E   E Q  E E Q  E   E Q  E E Q  E   Q  H.
|---------------|---------------|---------------|----------|
|---------------|---------------|---------------|----------|
|---------------|---------------|---------------|----------|
|-6-6--6-6-6--6-|-4-4--4-4-4--4-|-2-2--2-2-2--2-|-2--------|
|-6-6--6-6-6--6-|-4-4--4-4-4--4-|-2-2--2-2-2--2-|-2--------|
|-4-4--4-4-4--4-|-2-2--2-2-2--2-|-0-0--0-0-0--0-|-0--------|


  B5                              E5
  Gtr I
  E Q  E E Q  E   E Q  E E Q  E    E Q  Q   Q  E   E Q  Q  Q  E
|---------------|---------------|----------------|--------------|
|---------------|---------------|----------------|--------------|
|-4-4--4-4-4--4-|-3-3--3-3-3--3-|-/9-9--9---9--9-|-8-8--8--8--8-|
|-x-x--x-x-x--x-|-x-x--x-x-x--x-|--x-x--x---x--x-|-x-x--x--x--x-|
|-2-2--2-2-2--2-|-1-1--1-1-1--1-|-/7-7--7---7--7-|-6-6--6--6--6-|
|---------------|---------------|----------------|--------------|
|
| Gtr II
| E Q  E E Q  E   E Q  E E Q  E    E Q  E E Q  E   E Q  Q  Q  E
|---------------|---------------|----------------|--------------|
|---------------|---------------|----------------|--------------|
|-4-4--4-4-4--4-|-4-4--4-4-4--4-|----------------|--------------|
|-4-4--4-4-4--4-|-4-4--4-4-4--4-|--2-2--2-2-2--2-|-2-2--2--2--2-|
|-2-2--2-2-2--2-|-2-2--2-2-2--2-|--2-2--2-2-2--2-|-2-2--2--2--2-|
|---------------|---------------|--0-0--0-0-0--0-|-0-0--0--0--0-|


  G#5             F#5             E5                F#5
  E E E E q  Q    E E E E q  Q    E E E E E E E E   q  H.
|---------------|---------------|-----------------|----------||
|---------------|---------------|-----------------|----------||
|---------------|-6-6-6-6-6-----|-4-4-4-4-4-4-4-4-|-6--------||
|-6-6-6-6-6-----|-x-x-x-x-x-----|-x-x-x-x-x-x-x-x-|-x--------||
|-6-6-6-6-6-----|-4-4-4-4-4-----|-2-2-2-2-2-2-2-2-|-4--------||
|-4-4-4-4-4-----|---------------|-----------------|----------||
|
| E E E E q  Q    E E E E q  Q    E E E E E E E E   q  H.
|---------------|---------------|-----------------|----------||
|---------------|---------------|-----------------|----------||
|---------------|---------------|-----------------|----------||
|-6-6-6-6-6-----|-4-4-4-4-4-----|-2-2-2-2-2-2-2-2-|-4--------||
|-6-6-6-6-6-----|-4-4-4-4-4-----|-2-2-2-2-2-2-2-2-|-4--------||
|-4-4-4-4-4-----|-2-2-2-2-2-----|-0-0-0-0-0-0-0-0-|-2--------||


 Chorus
  G#5                           F#5
 2/2
   Q  Q  Q  Q     Q  Q  Q  Q     Q  Q  Q  Q     Q  Q  Q  Q
|--------------|--------------|--------------|---------------|
|--------------|--------------|--------------|---------------|
|--8--8--8--8--|--8--8--8--8--|--6--6--6--6--|--6--6--6--6---|
|--x--x--x--x--|--x--x--x--x--|--x--x--x--x--|--x--x--x--x---|
|--6--6--6--6--|--6--6--6--6--|--4--4--4--4--|--4--4--4--4---|
|--------------|--------------|--------------|---------------|
|
|  Q  Q  Q  Q     Q  Q  Q  Q     Q  Q  Q  Q     Q  Q  Q  Q
|--------------|--------------|--------------|---------------|
|--------------|--------------|--------------|---------------|
|--------------|--------------|--------------|---------------|
|--6--6--6--6--|--6--6--6--6--|--4--4--4--4--|--4--4--4--4---|
|--6--6--6--6--|--6--6--6--6--|--4--4--4--4--|--4--4--4--4---|
|--4--4--4--4--|--4--4--4--4--|--2--2--2--2--|--2--2--2--2---|
|
| Gtr III
|  Q  Q  Q  Q     Q  Q  Q  Q     Q  Q  Q  Q     Q  Q  Q  Q
|--------------|--------------|--------------|---------------|
|--------------|--------------|--------------|---------------|
|-11-----9-----|-11-----9-----|-11-----9-----|-11-----9------|
|-----9-----9--|-----9-----9--|-----9-----9--|-----9-----9---|
|--------------|--------------|--------------|---------------|
|--------------|--------------|--------------|---------------|


  E5                            B5
   Q  Q  Q  Q     Q  Q  Q  Q     Q  Q  Q  Q     Q  Q  Q  Q
|--------------|--------------|--------------|--------------|
|--------------|--------------|--------------|--------------|
|--4--4--6--6--|--8--8--9--9--|--4--4--4--4--|--4--3--3--3--|
|--x--x--x--x--|--x--x--x--x--|--x--x--x--x--|--x--x--x--x--|
|--2--2--4--4--|--6--6--7--7--|--2--2--2--2--|--2--1--1--1--|
|--------------|--------------|--------------|--------------|
|
|  Q  Q  Q  Q     Q  Q  Q  Q     Q  Q  Q  Q     Q  Q  Q  Q
|--------------|--------------|--------------|--------------|
|--------------|--------------|--------------|--------------|
|--------------|--------------|--4--4--4--4--|--4--4--4--4--|
|--2--2--2--2--|--2--2--2--2--|--4--4--4--4--|--4--4--4--4--|
|--2--2--2--2--|--2--2--2--2--|--2--2--2--2--|--2--2--2--2--|
|--0--0--0--0--|--0--0--0--0--|--------------|--------------|
|
|  Q  Q  Q  Q     Q  Q  Q  Q     Q  Q  Q  Q     Q  Q  Q  Q
|--------------|--------------|--------------|--------------|
|--------------|--------------|--------------|--------------|
|-11-----9-----|-11-----9-----|-11-----9-----|-11-----9-----|
|-----9-----9--|-----9-----9--|-----9-----9--|-----9-----9--|
|--------------|--------------|--------------|--------------|
|--------------|--------------|--------------|--------------|


  G#5                           F#5
   Q  Q  Q  Q     Q  Q  Q  Q     Q  Q  Q  Q     Q  Q  Q  Q
|--------------|--------------|--------------|--------------|
|--------------|--------------|--------------|--------------|
|--8--8--8--8--|--8--8--8--8--|--6--6--6--6--|--6--6--6--6--|
|--x--x--x--x--|--x--x--x--x--|--x--x--x--x--|--x--x--x--x--|
|--6--6--6--6--|--6--6--6--6--|--4--4--4--4--|--4--4--4--4--|
|--------------|--------------|--------------|--------------|
|
|  Q  Q  Q  Q     Q  Q  Q  Q     Q  Q  Q  Q     Q  Q  Q  Q
|--------------|--------------|--------------|--------------|
|--------------|--------------|--------------|--------------|
|--------------|--------------|--------------|--------------|
|--6--6--6--6--|--6--6--6--6--|--4--4--4--4--|--4--4--4--4--|
|--6--6--6--6--|--6--6--6--6--|--4--4--4--4--|--4--4--4--4--|
|--4--4--4--4--|--4--4--4--4--|--2--2--2--2--|--2--2--2--2--|
|
|  Q  Q  Q  Q     Q  Q  Q  Q     Q  Q  Q  Q     Q  Q  Q  Q
|--------------|--------------|--------------|--------------|
|--------------|--------------|--------------|--------------|
|-11-----9-----|-11-----9-----|-11-----9-----|-11-----9-----|
|-----9-----9--|-----9-----9--|-----9-----9--|-----9-----9--|
|--------------|--------------|--------------|--------------|
|--------------|--------------|--------------|--------------|


  E5                            B5
                                          4/4
                                           Gtr VI
                                           TP
   Q  Q  Q  Q     Q  Q  Q  Q    W          W
|--------------|--------------|----------|-------||
|--------------|--------------|----------|-------||
|--4--4--6--6--|--8--8--9--9--|-4--------|-x\----||
|--x--x--x--x--|--x--x--x--x--|-x--------|-x\----||
|--2--2--4--4--|--6--6--7--7--|-2--------|-x\----||
|--------------|--------------|----------|-------||
|
|  Q  Q  Q  Q     Q  Q  Q  Q    W          W
|--------------|--------------|----------|-------||
|--------------|--------------|----------|-------||
|--------------|--------------|-4--------|-------||
|--2--2--2--2--|--2--2--2--2--|-4--------|-------||
|--2--2--2--2--|--2--2--2--2--|-2--------|-------||
|--0--0--0--0--|--0--0--0--0--|----------|-------||
|
|  Q  Q  Q  Q     Q  Q  Q  Q    W          W
|--------------|--------------|----------|-------||
|--------------|--------------|----------|-------||
|-11-----9-----|-11-----9-----|----------|-------||
|-----9-----9--|-----9-----9--|----------|-------||
|--------------|--------------|-9--------|-------||
|--------------|--------------|----------|-------||


 Pre-Verse
  B5
  Gtr I
  E Q  E E Q  E   E Q  E E Q  E
|---------------|---------------|
|---------------|---------------|
|-4-4--4-6-6--6-|-8-8--8-6-6--6-|
|-x-x--x-x-x--x-|-x-x--x-x-x--x-|
|-2-2--2-4-4--4-|-6-6--6-4-4--4-|
|---------------|---------------|
|
| E Q  E E Q  E   E Q  E E Q  E
|---------------|---------------|
|---------------|---------------|
|-4-4--4-4-4--4-|-4-4--4-4-4--4-|
|-4-4--4-4-4--4-|-4-4--4-4-4--4-|
|-2-2--2-2-2--2-|-2-2--2-2-2--2-|
|---------------|---------------|


  E5
                                                    PM
   E   Q    E   E   Q    E     E   Q    Q       Q   E
|---------------------------|-------------------------|
|---------------------------|-------------------------|
|--4---4----4---6---6----6--|--9---8----6-------4-----|
|--x---x----x---x---x----x--|--x---x----x-------x---x-|
|--2---2----2---4---4----4--|--7---6----4-------2---x-|
|---------------------------|-------------------------|
|
|                                                   PM
|  E   Q    E   E   Q    E     E   Q    E   E   Q   E
|---------------------------|-------------------------|
|---------------------------|-------------------------|
|--9---9----9---9---9----9--|--9---9----9---9---9-----|
|--9---9----9---9---9----9--|--9---9----9---9---9---x-|
|--7---7----7---7---7----7--|--7---7----7---7---7---x-|
|-(0)-(0)--(0)-(0)-(0)--(0)-|-(0)-(0)--(0)-(0)-(0)--4-|


  G#5               F#5
  PM            PM--|            PM
  E Q  a E E Q  E   E Q   E E Q  E
|-----------------|----------------|
|-----------------|----------------|
|---4--4s6-6-6----|---8--\6-4-4----|
|-x-x--x---x-x--x-|-x-x---x-x-x--x-|
|-x-2--2s4-4-4--x-|-x-6--\4-2-2--x-|
|-----------------|----------------|
|
| PM            PM--|
| E Q    E E Q  E   E Q   E E Q  E
|-----------------|----------------|
|-----------------|----------------|
|-----------------|----------------|
|-x-6----6-6-6--x-|-x-4---4-4-4----|
|-x-6----6-6-6--x-|-x-4---4-4-4--4-|
|-4-4----4-4-4--2-|-2-2---2-2-2--2-|


  E5
   E  Q   E  E  Q   E    E  Q   E  E  Q   E
|---------------------|----------------------|
|---------------------|----------------------|
|-16-16--16-15-15--15-|-13-13--13-11-11--11--|
|--x--x---x--x--x---x-|--x--x---x--x--x---x--|
|-14-14--14-13-13--13-|-11-11--11--9--9---9--|
|---------------------|----------------------|
|
|  E  Q   E  E  Q   E    E  Q   E  E  Q   E
|---------------------|----------------------|
|---------------------|----------------------|
|---------------------|----------------------|
|--2--2---2--2--2---2-|--2--2---2--2--2---2--|
|--2--2---2--2--2---2-|--2--2---2--2--2---2--|
|--0--0---0--0--0---0-|--0--0---0--0--0---0--|


  B5
  E Q  E E Q  E   E Q  E E Q  E
|---------------|---------------|
|---------------|---------------|
|-4-4--4-6-6--6-|-8-8--8-6-6--6-|
|-x-x--x-x-x--x-|-x-x--x-x-x--x-|
|-2-2--2-4-4--4-|-6-6--6-4-4--4-|
|---------------|---------------|
|
| E Q  E E Q  E   E Q  E E Q  E
|---------------|---------------|
|---------------|---------------|
|-4-4--4-4-4--4-|-4-4--4-4-4--4-|
|-4-4--4-4-4--4-|-4-4--4-4-4--4-|
|-2-2--2-2-2--2-|-2-2--2-2-2--2-|
|---------------|---------------|


  E5
   E   Q    E   E   Q    E     E   Q    E   E   Q    E
|---------------------------|---------------------------|
|---------------------------|---------------------------|
|--4---4----4---9---9----9--|--8---8----8---6---6----6--|
|--x---x----x---x---x----x--|--x---x----x---x---x----x--|
|--2---2----2---7---7----7--|--6---6----6---4---4----4--|
|---------------------------|---------------------------|
|
|  E   Q    E   E   Q    E     E   Q    E   E   Q    E
|---------------------------|---------------------------|
|---------------------------|---------------------------|
|--9---9----9---9---9----9--|--9---9----9---9---9----9--|
|--9---9----9---9---9----9--|--9---9----9---9---9----9--|
|--7---7----7---7---7----7--|--7---7----7---7---7----7--|
|-(0)-(0)--(0)-(0)-(0)--(0)-|-(0)-(0)--(0)-(0)-(0)--(0)-|


  G#5             F#5             E5                        F#5
                                                                         PM|
  E E E E q  Q    E E E E q  Q     E  E  E  E  E  E  E  E    E  Q     Q  E Q
|---------------|---------------|-------------------------|-------------------||
|---------------|---------------|-------------------------|-------------------||
|-4-4-4-4S6-----|-8-8-8-8S4-----|-16-16-16-16-16-16-16-16-|-16-16----16-------||
|-x-x-x-x-x-----|-x-x-x-x-x-----|--x--x--x--x--x--x--x--x-|--x--x-----x--x-x--||
|-2-2-2-2S4-----|-6-6-6-6S2-----|-14-14-14-14-14-14-14-14-|-14-14----14--x-x--||
|---------------|---------------|-------------------------|-------------------||
|
|                                                                        PM|
| E E E E q  Q    E E E E q  Q     E  E  E  E  E  E  E  E    Q    Q.     E Q
|---------------|---------------|-------------------------|-------------------||
|---------------|---------------|-------------------------|-------------------||
|---------------|---------------|-------------------------|-------------------||
|-6-6-6-6-6-----|-4-4-4-4-4-----|--2--2--2--2--2--2--2--2-|--4-----------x-x--||
|-6-6-6-6-6-----|-4-4-4-4-4-----|--2--2--2--2--2--2--2--2-|--4-----------x-x--||
|-4-4-4-4-4-----|-2-2-2-2-2-----|--0--0--0--0--0--0--0--0-|--2-----------2-2--||


 Verse
  B5                              E5
  E Q  E E Q  E   E Q  E E Q  E   E Q  E E Q  E   E Q  Q   Q  E
|---------------|---------------|---------------|---------------|
|---------------|---------------|---------------|---------------|
|-4-4--4-4-4--4-|-3-3--3-3-3--3-|-4-4--4-4-4--4-|-3-3--3---3--3-|
|-x-x--x-x-x--x-|-x-x--x-x-x--x-|-x-x--x-x-x--x-|-x-x--x---x--x-|
|-2-2--2-2-2--2-|-1-1--1-1-1--1-|-2-2--2-2-2--2-|-1-1--1---1--1-|
|---------------|---------------|---------------|---------------|
|
| E Q  E E Q  E   E Q  E E Q  E   E Q  E E Q  E   E Q  E E Q  E
|---------------|---------------|---------------|---------------|
|---------------|---------------|---------------|---------------|
|-4-4--4-4-4--4-|-4-4--4-4-4--4-|-9-9--9-9-9--9-|-9-9--9-9-9--9-|
|-4-4--4-4-4--4-|-4-4--4-4-4--4-|-9-9--9-9-9--9-|-9-9--9-9-9--9-|
|-2-2--2-2-2--2-|-2-2--2-2-2--2-|-7-7--7-7-7--7-|-7-7--7-7-7--7-|
|---------------|---------------|-0-0--0-0-0--0-|-0-0--0-0-0--0-|


  G#5             F#5             E5
  E Q  E E Q  E   E Q  E E Q  E     E  E  E  E  E  E  E  E    Q  H.
|---------------|---------------|--------------------------|-----------|
|---------------|---------------|--------------------------|-----------|
|-4-4--4-6-6--6-|-8-8--8-6-6--6-|-/16-16-16-16-16-16-16-16-|-16--------|
|-x-x--x-x-x--x-|-x-x--x-x-x--x-|---x--x--x--x--x--x--x--x-|--x--------|
|-2-2--2-4-4--4-|-6-6--6-4-4--4-|-/14-14-14-14-14-14-14-14-|-14--------|
|---------------|---------------|--------------------------|-----------|
|
| E Q  E E Q  E   E Q  E E Q  E     E  Q     E  E  Q     E    Q  H.
|---------------|---------------|--------------------------|-----------|
|---------------|---------------|--------------------------|-----------|
|---------------|---------------|--------------------------|-----------|
|-6-6--6-6-6--6-|-4-4--4-4-4--4-|---2--2-----2--2--2-----2-|--2--------|
|-6-6--6-6-6--6-|-4-4--4-4-4--4-|---2--2-----2--2--2-----2-|--2--------|
|-4-4--4-4-4--4-|-2-2--2-2-2--2-|---0--0-----0--0--0-----0-|--0--------|


  B5
  PM-------------------------------
  E Q  E E Q  E   E Q  Q  S S E E
|---------------|-----------------|
|---------------|-----------------|
|-4-4--4-4-4--4-|-3-3--3--3-3-3-3-|
|-x-x--x-x-x--x-|-x-x--x--x-x-x-x-|
|-2-2--2-2-2--2-|-1-1--1--1-1-1-1-|
|---------------|-----------------|
|
| PM-------------------------------
| E Q  E E Q  E   E Q  Q  S S E E
|---------------|-----------------|
|---------------|-----------------|
|---------------|-----------------|
|-4-4--4-4-4--4-|-4-4--4--4-4-4-4-|
|-2-2--2-2-2--2-|-2-2--2--2-2-2-2-|
|-2-2--2-2-2--2-|-2-2--2--2-2-2-2-|


  E5
 -------------------------------------------------------|
   E   Q    E   E   Q    E     E   Q    Q    S   S   E   E
|---------------------------|-------------------------------|
|---------------------------|-------------------------------|
|---------------9---9-------|--8---8----6----6---6---6---6--|
|---------------x---x-------|--x---x----x----x---x---x---x--|
|--7---7----7---7---7----7--|--6---6----4----4---4---4---4--|
|--0---0----0---0---0----0--|-------------------------------|
|
|-------------------------------------------------------|
|  E   Q    E   E   Q    E     E   Q    Q    S   S   E   E
|---------------------------|-------------------------------|
|---------------------------|-------------------------------|
|--4---4----4---4---4----4--|--4---4----4----4---4---4---4--|
|--2---2----2---2---2----2--|--2---2----2----2---2---2---2--|
|--2---2----2---2---2----2--|--2---2----2----2---2---2---2--|
|-(0)-(0)--(0)-(0)-(0)--(0)-|-(0)-(0)--(0)--(0)-(0)-(0)-(0)-|


  G#5             F#5             E5                F#5
  E E E E q  Q    E E E E q  Q    E E E E E E E E   q  H.
|---------------|---------------|-----------------|----------------||
|---------------|---------------|-----------------|----------------||
|---------------|-6-6-6-6-6-----|-4-4-4-4-4-4-4-4-|-6--------------||
|-6-6-6-6-6-----|-x-x-x-x-x-----|-x-x-x-x-x-x-x-x-|-x--------------||
|-6-6-6-6-6-----|-4-4-4-4-4-----|-2-2-2-2-2-2-2-2-|-4--------------||
|-4-4-4-4-4-----|---------------|-----------------|----------------||
|
| E E E E q  Q    E E E E q  Q    E E E E E E E E   q  Q   E E E E
|---------------|---------------|-----------------|----------------||
|---------------|---------------|-----------------|----------------||
|---------------|---------------|-----------------|--------x-x-x-x-||
|-6-6-6-6-6-----|-4-4-4-4-4-----|-2-2-2-2-2-2-2-2-|-4------x-x-x-x-||
|-6-6-6-6-6-----|-4-4-4-4-4-----|-2-2-2-2-2-2-2-2-|-4------x-x-x-x-||
|-4-4-4-4-4-----|-2-2-2-2-2-----|-0-0-0-0-0-0-0-0-|-2--------------||


 Chorus
  G#5                           F#5
 2/2
   Q  Q  Q  Q     Q  Q  Q  Q     Q  Q  Q  Q     Q  Q  Q  Q
|--------------|--------------|--------------|---------------|
|--------------|--------------|--------------|---------------|
|--8--8--8--8--|--8--8--8--8--|--6--6--6--6--|--6--6--6--6---|
|--x--x--x--x--|--x--x--x--x--|--x--x--x--x--|--x--x--x--x---|
|--6--6--6--6--|--6--6--6--6--|--4--4--4--4--|--4--4--4--4---|
|--------------|--------------|--------------|---------------|
|
|  Q  Q  Q  Q     Q  Q  Q  Q     Q  Q  Q  Q     Q  Q  Q  Q
|--------------|--------------|--------------|---------------|
|--------------|--------------|--------------|---------------|
|--------------|--------------|--------------|---------------|
|--6--6--6--6--|--6--6--6--6--|--4--4--4--4--|--4--4--4--4---|
|--6--6--6--6--|--6--6--6--6--|--4--4--4--4--|--4--4--4--4---|
|--4--4--4--4--|--4--4--4--4--|--2--2--2--2--|--2--2--2--2---|
|
| Gtr III
|  Q  Q  Q  Q     Q  Q  Q  Q     Q  Q  Q  Q     Q  Q  Q  Q
|--------------|--------------|--------------|---------------|
|--------------|--------------|--------------|---------------|
|-11-----9-----|-11-----9-----|-11-----9-----|-11-----9------|
|-----9-----9--|-----9-----9--|-----9-----9--|-----9-----9---|
|--------------|--------------|--------------|---------------|
|--------------|--------------|--------------|---------------|


  E5                            B5
   Q  Q  Q  Q     Q  Q  Q  Q     Q  Q  Q  Q     Q  Q  Q  Q
|--------------|--------------|--------------|--------------|
|--------------|--------------|--------------|--------------|
|--4--4--6--6--|--8--8--9--9--|--4--4--4--4--|--4--3--3--3--|
|--x--x--x--x--|--x--x--x--x--|--x--x--x--x--|--x--x--x--x--|
|--2--2--4--4--|--6--6--7--7--|--2--2--2--2--|--2--1--1--1--|
|--------------|--------------|--------------|--------------|
|
|  Q  Q  Q  Q     Q  Q  Q  Q     Q  Q  Q  Q     Q  Q  Q  Q
|--------------|--------------|--------------|--------------|
|--------------|--------------|--------------|--------------|
|--------------|--------------|--4--4--4--4--|--4--4--4--4--|
|--2--2--2--2--|--2--2--2--2--|--4--4--4--4--|--4--4--4--4--|
|--2--2--2--2--|--2--2--2--2--|--2--2--2--2--|--2--2--2--2--|
|--0--0--0--0--|--0--0--0--0--|--------------|--------------|
|
|  Q  Q  Q  Q     Q  Q  Q  Q     Q  Q  Q  Q     Q  Q  Q  Q
|--------------|--------------|--------------|--------------|
|--------------|--------------|--------------|--------------|
|-11-----9-----|-11-----9-----|-11-----9-----|-11-----9-----|
|-----9-----9--|-----9-----9--|-----9-----9--|-----9-----9--|
|--------------|--------------|--------------|--------------|
|--------------|--------------|--------------|--------------|


  G#5                           F#5
   Q  Q  Q  Q     Q  Q  Q  Q     Q  Q  Q  Q     Q  Q  Q  Q
|--------------|--------------|--------------|--------------|
|--------------|--------------|--------------|--------------|
|--8--8--8--8--|--8--8--8--8--|--6--6--6--6--|--6--6--6--6--|
|--x--x--x--x--|--x--x--x--x--|--x--x--x--x--|--x--x--x--x--|
|--6--6--6--6--|--6--6--6--6--|--4--4--4--4--|--4--4--4--4--|
|--------------|--------------|--------------|--------------|
|
|  Q  Q  Q  Q     Q  Q  Q  Q     Q  Q  Q  Q     Q  Q  Q  Q
|--------------|--------------|--------------|--------------|
|--------------|--------------|--------------|--------------|
|--------------|--------------|--------------|--------------|
|--6--6--6--6--|--6--6--6--6--|--4--4--4--4--|--4--4--4--4--|
|--6--6--6--6--|--6--6--6--6--|--4--4--4--4--|--4--4--4--4--|
|--4--4--4--4--|--4--4--4--4--|--2--2--2--2--|--2--2--2--2--|
|
|  Q  Q  Q  Q     Q  Q  Q  Q     Q  Q  Q  Q     Q  Q  Q  Q
|--------------|--------------|--------------|--------------|
|--------------|--------------|--------------|--------------|
|-11-----9-----|-11-----9-----|-11-----9-----|-11-----9-----|
|-----9-----9--|-----9-----9--|-----9-----9--|-----9-----9--|
|--------------|--------------|--------------|--------------|
|--------------|--------------|--------------|--------------|


  E5                            B5
   Q  Q  Q  Q     Q  Q  Q  Q     W           +W
|--------------|--------------|-----------|---------||
|--------------|--------------|-----------|---------||
|--4--4--6--6--|--8--8--9--9--|--4--------|--(4)----||
|--x--x--x--x--|--x--x--x--x--|--x--------|---------||
|--2--2--4--4--|--6--6--7--7--|--2--------|--(2)----||
|--------------|--------------|-----------|---------||
|
|  Q  Q  Q  Q     Q  Q  Q  Q     W           +W
|--------------|--------------|-----------|---------||
|--------------|--------------|-----------|---------||
|--------------|--------------|--4--------|--(4)----||
|--2--2--2--2--|--2--2--2--2--|--4--------|--(4)----||
|--2--2--2--2--|--2--2--2--2--|--2--------|--(2)----||
|--0--0--0--0--|--0--0--0--0--|-----------|---------||
|
|  Q  Q  Q  Q     Q  Q  Q  Q     W           +W
|--------------|--------------|-----------|---------||
|--------------|--------------|-----------|---------||
|-11-----9-----|-11-----9-----|-11--------|-(11)----||
|-----9-----9--|-----9-----9--|-----------|---------||
|--------------|--------------|-----------|---------||
|--------------|--------------|-----------|---------||


 Interlude
  H.=H
  N.C.
  Gtr IV
   Q   Q   Q   Q     Q   Q   Q   Q     Q   Q   Q   Q     Q   Q   Q   Q
|-----------------|-14--------------|-----------------|-14--------------|
|---------12------|---------12------|---------12------|---------12------|
|-13--13------13--|-----13------13--|-11--11------11--|-----11------11--|
|-----------------|-----------------|-----------------|-----------------|
|-----------------|-----------------|-----------------|-----------------|
|-----------------|-----------------|-----------------|-----------------|


  Q=195
   Q    Q   Q   Q       Q   Q   Q   Q
|--------------------|-14--------------|
|----------12--------|---------12------|
|--------------------|-----------------|
|-14---14------14----|-----14------14--|
|--------------------|-----------------|
|--------------------|-----------------|
|
| Gtr V
|  H.           E  E    W
|--0------------0--0-|--0--------------|
|-12-----------12-12-|-12--------------|
|--------------------|-----------------|
|--------------------|-----------------|
|--------------------|-----------------|
|--------------------|-----------------|


    Q    Q   Q   Q     Q   Q      Q   Q
|--14---------------|-14-----------------|
|-----------12------|------------12------|
|-------------------|--------------------|
|-------14------14--|-----14---------14--|
|-------------------|--------------------|
|-------------------|--------------------|
|
|  +W                  Q   S  e.  H
|--(0)--------------|-----11h12--11------|
|-(12)--------------|--------------------|
|-------------------|--------------------|
|-------------------|--------------------|
|-------------------|--------------------|
|-------------------|--------------------|


    Q    Q   Q   Q     Q   Q   Q    Q     Q    Q   Q    Q     Q    Q   Q    Q
|-------------------|-14---------------|-------------------|-14----------------|
|-----------12------|---------12-------|----------12-------|----------12-------|
|--13---13------13--|-----13-------13--|-11---11-------11--|------11-------11--|
|-------------------|------------------|-------------------|-------------------|
|-------------------|------------------|-------------------|-------------------|
|-------------------|------------------|-------------------|-------------------|
|
|   H        h         H       H          H        H          H        H
|-(16)------14------|-12------11/------|-16\------14\------|-12\------11\------|
|-------------------|------------------|-------------------|-------------------|
|-------------------|------------------|-------------------|-------------------|
|-------------------|------------------|-------------------|-------------------|
|-------------------|------------------|-------------------|-------------------|
|-------------------|------------------|-------------------|-------------------|


   Q   Q   Q   Q      Q    Q     Q   Q
|-----------------|--14-----------------|
|---------12------|-------------12------|
|-----------------|---------------------|
|-14--14------14--|-------14--------14--|
|-----------------|---------------------|
|-----------------|---------------------|
|
|  W                 +Q    Q  a  Q   Q
|-----------------|--------9--9s11---9--|
|-12--------------|-(12)----------------|
|-----------------|---------------------|
|-----------------|---------------------|
|-----------------|---------------------|
|-----------------|---------------------|


   Q    Q   Q   Q      Q    Q    Q   Q
|-14---------------|--14-----------------||
|----------12------|------------12-------||
|------------------|---------------------||
|------14------14--|-------14-------14---||
|------------------|---------------------||
|------------------|---------------------||
|
| +H.           Q     +Q    H.
|-(9)--------------|---------------------||
|--------------12--|-(12)----------------||
|------------------|-------15------------||
|------------------|---------------------||
|------------------|---------------------||
|------------------|---------------------||


 Buildup
  Q=210
  G#5                             F#5
  Gtr II
      PM-------------------------------------------------------|
   Q  Q  Q  Q      Q   Q  Q  Q      Q   Q  Q  E E    Q   Q  Q  Q
|--------------|----------------|-----------------|---------------|
|--------------|----------------|-----------------|---------------|
|--------------|----------------|-----------------|---------------|
|--6-----------|----------------|-----------------|---------------|
|--6--6--6--6--|---6---6--6--6--|---4---4--4--4-4-|--4---4--4--4--|
|--4--4--4--4--|---4---4--4--4--|---2---2--2--2-2-|--2---2--2--2--|
|
|  W              +W                W                H.        Q
|--------------|----------------|-----------------|------------0--|
|-12-----------|-(12)-----------|-(12)------------|-12---------9--|
|--------------|----------------|-----------------|---------------|
|--------------|----------------|-----------------|---------------|
|--------------|----------------|-----------------|---------------|
|--------------|----------------|-----------------|---------------|


  E5                               B5
  Gtr I
  PM------------------------------------------------------------|
  Q  Q  Q  Q     Q   Q   Q    Q    Q   Q  Q   Q      Q   Q   Q  Q
|-------------|------------------|-----------------|---------------|
|-------------|------------------|-----------------|---------------|
|-4--4--6--6--|--8---8---6----6--|-4---4--4---4----|-4---3---3--3--|
|-x--x--x--x--|--x---x---x----x--|-x---x--x---x----|-x---x---x--x--|
|-2--2--4--4--|--6---6---4----4--|-2---2--2---2----|-2---1---1--1--|
|-------------|------------------|-----------------|---------------|
|
| Gtr II
| PM------------------------------------------------------------|
| Q  Q  Q  Q     Q   Q   Q    Q    Q   Q  Q   Q      Q   Q   Q  Q
|-------------|------------------|-----------------|---------------|
|-------------|------------------|-----------------|---------------|
|-------------|------------------|-----------------|---------------|
|-------------|------------------|-4---4--4---4----|-4---4---4--4--|
|-2--2--2--2--|--2---2---2----2--|-2---2--2---2----|-2---2---2--2--|
|-0--0--0--0--|--0---0---0----0--|-----------------|---------------|
|
| Gtr IV
| W             +Q   q.    Q.      H.        +E  E   Q   Q   H
|-0-----------|-(0)--0-----0-----|-----------------|---------------|
|-9-----------|-(9)--9-----9\----|-7---------(7)-9-|-9--11--12-----|
|-------------|------------------|-----------------|---------------|
|-------------|------------------|-----------------|---------------|
|-------------|------------------|-----------------|---------------|
|-------------|------------------|-----------------|---------------|


  G#5                      F#5
  Gtr II
  Q  Q   H      W          Q  Q  H      W
|-------------|----------|------------|------|
|-------------|----------|------------|------|
|-------------|----------|------------|------|
|-6--6--------|----------|-4--4-------|------|
|-6--6--------|----------|-4--4-------|------|
|-4--4--------|----------|-2--2-------|------|
|
| Gtr IV
| Q  H.         W          W            W
|-------------|----------|------------|------|
|-0-----------|----------|------------|------|
|-------------|----------|------------|------|
|-------------|----------|------------|------|
|-------------|----------|------------|------|
|-------------|----------|------------|------|


                              H=H            Quicker! (but still 1/2) Q=220
  E5                          B5
                                             Gtrs I, II
  PM---------------------|
  Q  Q  Q  Q    Q  Q  Q  Q    Q.   Q.   Q    E E E E E E E E
|-------------|-------------|--------------|-----------------||
|-------------|-------------|--------------|-----------------||
|-------------|-------------|-4----4----4--|-x-x-x-x-x-x-x-x-||
|-------------|-------------|-4----4----4--|-x-x-x-x-x-x-x-x-||
|-2--2--2--2--|-2--2--2--2--|-2----2----2--|-x-x-x-x-x-x-x-x-||
|-0--0--0--0--|-0--0--0--0--|--------------|-----------------||


 Out-Chorus
  G#5                           F#5
  Gtr I
   Q  Q  Q  Q     Q  Q  Q  Q     Q  Q  Q  Q     Q  Q  Q  Q
|--------------|--------------|--------------|--------------|
|--------------|--------------|--------------|--------------|
|--8--8--8--8--|--8--8--8--8--|--6--6--6--6--|--6--6--6--6--|
|--x--x--x--x--|--x--x--x--x--|--x--x--x--x--|--x--x--x--x--|
|--6--6--6--6--|--6--6--6--6--|--4--4--4--4--|--4--4--4--4--|
|--------------|--------------|--------------|--------------|
|
| Gtr II
|  Q  Q  Q  Q     Q  Q  Q  Q     Q  Q  Q  Q     Q  Q  Q  Q
|--------------|--------------|--------------|--------------|
|--------------|--------------|--------------|--------------|
|--------------|--------------|--------------|--------------|
|--6--6--6--6--|--6--6--6--6--|--4--4--4--4--|--4--4--4--4--|
|--6--6--6--6--|--6--6--6--6--|--4--4--4--4--|--4--4--4--4--|
|--4--4--4--4--|--4--4--4--4--|--2--2--2--2--|--2--2--2--2--|
|
| Gtr III
|  Q  Q  Q  Q     Q  Q  Q  Q     Q  Q  Q  Q     Q  Q  Q  Q
|--------------|--------------|--------------|--------------|
|--------------|--------------|--------------|--------------|
|-11-----9-----|-11-----9-----|-11-----9-----|-11-----9-----|
|-----9-----9--|-----9-----9--|-----9-----9--|-----9-----9--|
|--------------|--------------|--------------|--------------|
|--------------|--------------|--------------|--------------|


  E5                            B5
   Q  Q  Q  Q     Q  Q  Q  Q     Q  Q  Q  Q     Q  Q  Q  Q
|--------------|--------------|--------------|--------------|
|--------------|--------------|--------------|--------------|
|--4--4--6--6--|--8--8--9--9--|--4--4--4--4--|--4--3--3--3--|
|--x--x--x--x--|--x--x--x--x--|--x--x--x--x--|--x--x--x--x--|
|--2--2--4--4--|--6--6--7--7--|--2--2--2--2--|--2--1--1--1--|
|--------------|--------------|--------------|--------------|
|
|  Q  Q  Q  Q     Q  Q  Q  Q     Q  Q  Q  Q     Q  Q  Q  Q
|--------------|--------------|--------------|--------------|
|--------------|--------------|--------------|--------------|
|--------------|--------------|--4--4--4--4--|--4--4--4--4--|
|--2--2--2--2--|--2--2--2--2--|--4--4--4--4--|--4--4--4--4--|
|--2--2--2--2--|--2--2--2--2--|--2--2--2--2--|--2--2--2--2--|
|--0--0--0--0--|--0--0--0--0--|--------------|--------------|
|
|  Q  Q  Q  Q     Q  Q  Q  Q     Q  Q  Q  Q     Q  Q  Q  Q
|--------------|--------------|--------------|--------------|
|--------------|--------------|--------------|--------------|
|-11-----9-----|-11-----9-----|-11-----9-----|-11-----9-----|
|-----9-----9--|-----9-----9--|-----9-----9--|-----9-----9--|
|--------------|--------------|--------------|--------------|
|--------------|--------------|--------------|--------------|


  G#5                             F#5
  Q  Q  E E E E   Q  Q  E E E E   Q  Q  E E E E   Q  Q  E E E E
|---------------|---------------|---------------|---------------|
|---------------|---------------|---------------|---------------|
|---------------|---------------|---------------|---------------|
|-6--6--x-x-x-x-|-6--6--x-x-x-x-|-4--4--x-x-x-x-|-4--4--x-x-x-x-|
|-6--6--x-x-x-x-|-6--6--x-x-x-x-|-4--4--x-x-x-x-|-4--4--x-x-x-x-|
|-4--4--x-x-x-x-|-4--4--x-x-x-x-|-2--2--x-x-x-x-|-2--2--x-x-x-x-|
|
| Q  Q  E E E E   Q  Q  E E E E   Q  Q  E E E E   Q  Q  E E E E
|---------------|---------------|---------------|---------------|
|---------------|---------------|---------------|---------------|
|---------------|---------------|---------------|---------------|
|-6--6--x-x-x-x-|-6--6--x-x-x-x-|-4--4--x-x-x-x-|-4--4--x-x-x-x-|
|-6--6--x-x-x-x-|-6--6--x-x-x-x-|-4--4--x-x-x-x-|-4--4--x-x-x-x-|
|-4--4--x-x-x-x-|-4--4--x-x-x-x-|-2--2--x-x-x-x-|-2--2--x-x-x-x-|


  E5                          B5
                              Gtr VI
                              TP          TP
  Q  Q  Q  Q    Q  Q  Q  Q    W           W
|-------------|-------------|----------|--------||
|-------------|-------------|----------|--------||
|-4--4--6--6--|-8--8--9--9--|-xs=======|==x\----||
|-x--x--x--x--|-x--x--x--x--|-xs=======|==x\----||
|-2--2--4--4--|-6--6--7--7--|-xs=======|==x\----||
|-------------|-------------|----------|--------||
|
| Q  Q  Q  Q    Q  Q  Q  Q    W          +W
|-------------|-------------|----------|--------||
|-------------|-------------|----------|--------||
|-------------|-------------|-4--------|-(4)----||
|-2--2--2--2--|-2--2--2--2--|-4--------|-(4)----||
|-2--2--2--2--|-2--2--2--2--|-2--------|-(2)----||
|-0--0--0--0--|-0--0--0--0--|----------|--------||


 Outro
  Q=198
  B5
 4/4
  Gtr I
  E Q  E E Q  E   E Q  E E Q  E
|---------------|---------------|
|---------------|---------------|
|-4-4--4-6-6--6-|-8-8--8-6-6--6-|
|-x-x--x-x-x--x-|-x-x--x-x-x--x-|
|-2-2--2-4-4--4-|-6-6--6-4-4--4-|
|---------------|---------------|
|
| E Q  E E Q  E   E Q  E E Q  E
|---------------|---------------|
|---------------|---------------|
|-4-4--4-4-4--4-|-4-4--4-4-4--4-|
|-4-4--4-4-4--4-|-4-4--4-4-4--4-|
|-2-2--2-2-2--2-|-2-2--2-2-2--2-|
|---------------|---------------|
|
| Gtr III
| E Q  E E Q  E   E Q  E E Q  E
|---------------|---------------|
|---------------|---------------|
|-4-4--4-6-6--6-|-8-8--8-6-6--6-|
|-x-x--x-x-x--x-|-x-x--x-x-x--x-|
|-2-2--2-4-4--4-|-6-6--6-4-4--4-|
|---------------|---------------|


  E5
                                                    PM
   E   Q    E   E   Q    E     E   Q    E   E   Q   E
|---------------------------|--------------------------|
|---------------------------|--------------------------|
|--4---4----4---6---6----6--|--8---8----8---6---6------|
|--x---x----x---x---x----x--|--x---x----x---x---x---x--|
|--2---2----2---4---4----4--|--6---6----6---4---4---x--|
|---------------------------|--------------------------|
|
|                                                   PM
|  E   Q    E   E   Q    E     E   Q    E   E   Q   E
|---------------------------|--------------------------|
|---------------------------|--------------------------|
|--9---9----9---9---9----9--|--9---9----9---9---9------|
|--9---9----9---9---9----9--|--9---9----9---9---9---x--|
|--7---7----7---7---7----7--|--7---7----7---7---7---x--|
|-(0)-(0)--(0)-(0)-(0)--(0)-|-(0)-(0)--(0)-(0)-(0)--4--|
|
|                                                   PM
|  E   Q    E   E   Q    E     E   Q    E   E   Q   E
|---------------------------|--------------------------|
|---------------------------|--------------------------|
|--4---4----4---6---6----6--|--8---8----8---6---6------|
|--x---x----x---x---x----x--|--x---x----x---x---x---x--|
|--2---2----2---4---4----4--|--6---6----6---4---4---x--|
|---------------------------|--------------------------|


  G#5               F#5
  PM            PM--|            PM
  E Q  a E E Q  E   E Q   E E Q  E
|-----------------|----------------|
|-----------------|----------------|
|---4--4s6-6-6----|---8--\6-4-4----|
|-x-x--x---x-x--x-|-x-x---x-x-x--x-|
|-x-2--2s4-4-4--x-|-x-6--\4-2-2--x-|
|-----------------|----------------|
|
| PM            PM--|
| E Q    E E Q  E   E Q   E E Q  E
|-----------------|----------------|
|-----------------|----------------|
|-----------------|----------------|
|-x-6----6-6-6--x-|-x-4---4-4-4----|
|-x-6----6-6-6--x-|-x-4---4-4-4--4-|
|-4-4----4-4-4--2-|-2-2---2-2-2--2-|
|
| PM            PM--|            PM
| E Q  a E E Q  E   E Q   E E Q  E
|-----------------|----------------|
|-----------------|----------------|
|---4--4s6-6-6----|---8--\6-4-4----|
|-x-x--x---x-x--x-|-x-x---x-x-x--x-|
|-x-2--2s4-4-4--x-|-x-6--\4-2-2--x-|
|-----------------|----------------|


  E5
    E  Q   E  E  Q   E    E  Q   E  E  Q   E
|----------------------|----------------------|
|----------------------|----------------------|
|---4--4---4--6--6---6-|--8--8---8--6--6---6--|
|---x--x---x--x--x---x-|--x--x---x--x--x---x--|
|---2--2---2--4--4---4-|--6--6---6--4--4---4--|
|----------------------|----------------------|
|
|   E  Q   E  E  Q   E    E  Q   E  E  Q   E
|----------------------|----------------------|
|----------------------|----------------------|
|----------------------|----------------------|
|---2--2---2--2--2---2-|--2--2---2--2--2---2--|
|---2--2---2--2--2---2-|--2--2---2--2--2---2--|
|---0--0---0--0--0---0-|--0--0---0--0--0---0--|
|
|   E  Q   E  E  Q   E    E  Q   E  E  Q   E
|----------------------|----------------------|
|----------------------|----------------------|
|-/16-16--16-16-16--16-|-16-16--16-16-16--16--|
|---x--x---x--x--x---x-|--x--x---x--x--x---x--|
|-/14-14--14-14-14--14-|-14-14--14-14-14--14--|
|----------------------|----------------------|


  B5
   E  Q   E  E  Q   E    E  Q   E   E  Q   E
|---------------------|----------------------|
|---------------------|----------------------|
|--4--4---4--6--6---6-|--8--8---8---6--6---6-|
|--x--x---x--x--x---x-|--x--x---x---x--x---x-|
|--2--2---2--4--4---4-|--6--6---6---4--4---4-|
|---------------------|----------------------|
|
|  E  Q   E  E  Q   E    E  Q   E   E  Q   E
|---------------------|----------------------|
|---------------------|----------------------|
|--4--4---4--4--4---4-|--4--4---4---4--4---4-|
|--4--4---4--4--4---4-|--4--4---4---4--4---4-|
|--2--2---2--2--2---2-|--2--2---2---2--2---2-|
|---------------------|----------------------|
|
|  E  Q   E  E  Q   E    E  Q   E   E  Q   E
|---------------------|----------------------|
|---------------------|----------------------|
|-15-15--15-16-16--16-|-15-15--15\-11-11--11-|
|--x--x---x--x--x---x-|--x--x---x---x--x---x-|
|-13-13--13-14-14--14-|-13-13--13\--9--9---9-|
|---------------------|----------------------|


  E5
    E   Q    E   E   Q    E     E   Q    E   E   Q    E
|----------------------------|---------------------------|
|----------------------------|---------------------------|
|---4---4----4---6---6----6--|--8---8----8---6---6----6--|
|---x---x----x---x---x----x--|--x---x----x---x---x----x--|
|---2---2----2---4---4----4--|--6---6----6---4---4----4--|
|----------------------------|---------------------------|
|
|   E   Q    E   E   Q    E     E   Q    E   E   Q    E
|----------------------------|---------------------------|
|----------------------------|---------------------------|
|---9---9----9---9---9----9--|--9---9----9---9---9----9--|
|---9---9----9---9---9----9--|--9---9----9---9---9----9--|
|---7---7----7---7---7----7--|--7---7----7---7---7----7--|
|--(0)-(0)--(0)-(0)-(0)--(0)-|-(0)-(0)--(0)-(0)-(0)--(0)-|
|
|   E   Q    E   E   Q    E     E   Q    E   E   Q    E
|----------------------------|---------------------------|
|----------------------------|---------------------------|
|-/15--15---15--16--16---16--|-18--18---18--16--16---16--|
|---x---x----x---x---x----x--|--x---x----x---x---x----x--|
|-/13--13---13--14--14---14--|-16--16---16--14--14---14--|
|----------------------------|---------------------------|


  G#5                  F#5
   E  E  E  E  q  Q     E  E  E  E  q  Q
|--------------------|--------------------|
|--------------------|--------------------|
|--------------------|--6--6--6--6--6-----|
|--6--6--6--6--6-----|--x--x--x--x--x-----|
|--6--6--6--6--6-----|--4--4--4--4--4-----|
|--4--4--4--4--4-----|--------------------|
|
|  E  E  E  E  q  Q     E  E  E  E  q  Q
|--------------------|--------------------|
|--------------------|--------------------|
|--------------------|--------------------|
|--6--6--6--6--6-----|--4--4--4--4--4-----|
|--6--6--6--6--6-----|--4--4--4--4--4-----|
|--4--4--4--4--4-----|--2--2--2--2--2-----|
|
|  E  E  E  E  q  Q     E  E  E  E  q  Q
|--------------------|--------------------|
|--------------------|--------------------|
|-16-16-16-16-16-----|-15-15-15-15-15-----|
|--x--x--x--x--x-----|--x--x--x--x--x-----|
|-14-14-14-14-14-----|-13-13-13-13-13-----|
|--------------------|--------------------|


                            H.=H
  E5
   Q     E  E  Q     E  E   Q   E E Q   E E
|-------------------------|-----------------||
|-------------------------|-----------------||
|--4-----4--4--4-----4--4-|-4---4-4-4---4-4-||
|--x-----x--x--x-----x--x-|-x---x-x-x---x-x-||
|--2-----2--2--2-----2--2-|-2---2-2-2---2-2-||
|-------------------------|-----------------||
|
|        PM|         PM|        PM|     PM
|  Q     E  E  Q     E  E   Q   E E Q   Q
|-------------------------|-----------------||
|-------------------------|-----------------||
|-------------------------|-----------------||
|--2-----------2----------|-2-------2-------||
|--2-----2--2--2-----2--2-|-2---2-2-2---2---||
|--0-----0--0--0-----0--0-|-0---0-0-0---0---||
|
|  E  E  E  E  E  E  E  E   E E E E E E Q
|-------------------------|-----------------||
|-------------------------|-----------------||
|-11-11-11-11-11-11-11-11-|-9-9-9-9-8-8-8---||
|--x--x--x--x--x--x--x--x-|-x-x-x-x-x-x-x---||
|--9--9--9--9--9--9--9--9-|-7-7-7-7-6-6-6---||
|-------------------------|-----------------||


  Free Time QH.=H
  B5
  >
  W          +W           +W           +W
|----------|------------|------------|--------------|
|----------|------------|------------|--------------|
|-4--------|-(4)--------|-(4)--------|-(4)----------|
|-4--------|-(4)--------|-(4)--------|-(4)----------|
|-2--------|-(2)--------|-(2)--------|-(2)----------|
|-2--------|-(2)--------|-(2)--------|-(2)----------|
|
| >
| W          +W           +W           +H     H
|----------|------------|------------|--------------|
|----------|------------|------------|--------------|
|-4--------|-(4)--------|-(4)--------|-(4)----4-----|
|-4--------|-(4)--------|-(4)--------|-(4)----x-----|
|-2--------|-(2)--------|-(2)--------|-(2)----2-----|
|-2--------|-(2)--------|-(2)--------|-(2)----------|
|
| >
| W          +W           +W           +H.       Q
|----------|------------|------------|--------------|
|----------|------------|------------|--------------|
|-8--------|-(8)--------|-(8)--------|-(8)-------8--|
|----------|------------|------------|-----------x--|
|-6--------|-(6)--------|-(6)--------|-(6)-------6--|
|----------|------------|------------|--------------|


  Q=90
  +W           +W           +W           +W
|------------|------------|------------|--------*|
|------------|------------|------------|--------*|
|-(4)--------|-(4)--------|-(4)--------|-(4)----*|
|-(4)--------|-(4)--------|-(4)--------|-(4)----*|
|-(2)--------|-(2)--------|-(2)--------|-(2)----*|
|-(2)--------|-(2)--------|-(2)--------|-(2)----*|
|
|  >
| +W           +W           +W           +W
|------------|------------|------------|--------*|
|------------|------------|------------|--------*|
|-(4)--------|-(4)--------|-(4)--------|-(4)----*|
|------------|------------|------------|--------*|
|-(2)--------|-(2)--------|-(2)--------|-(2)----*|
|------------|------------|------------|--------*|
|
|  >
| +W           +W           +W           +W
|------------|------------|------------|--------*|
|------------|------------|------------|--------*|
|-(8)--------|-(8)--------|-(8)--------|-(8)----*|
|------------|------------|------------|--------*|
|-(6)--------|-(6)--------|-(6)--------|-(6)----*|
|------------|------------|------------|--------*|



Duration Legend
---------------
W - whole; H - half; Q - quarter; E - 8th; S - 16th; T - 32nd; X - 64th; a - acciaccatura
+ - note tied to previous; . - note dotted; .. - note double dotted
Uncapitalized letters represent notes that are staccato (1/2 duration)
Irregular groupings are notated above the duration line
Duration letters will always appear directly above the note/fret number it represents the
duration for.  Duration letters with no fret number below them represent rests.  Multi-
bar rests are notated in the form Wxn, where n is the number of bars to rest for.  Low
melody durations appear below the staff

Tablature Legend
----------------
 h   - hammer-on
 p   - pull-off
 b   - bend
 pb  - pre-bend
 r   - bend release (if no number after the r, then release immediately)
 /\  - slide into or out of (from/to "nowhere")
 s   - legato slide
 S   - shift slide
 - natural harmonic
[n]  - artificial harmonic
n(n) - tapped harmonic
 ~   - vibrato
 tr  - trill
 T   - tap
 TP  - trem. picking
 PM  - palm muting
\n/  - tremolo bar dip; n = amount to dip
 \n  - tremolo bar down
 n/  - tremolo bar up
/n\  - tremolo bar inverted dip
 =   - hold bend; also acts as connecting device for hammers/pulls
 <> - volume swell (louder/softer)
 x   - on rhythm slash represents muted slash
 o   - on rhythm slash represents single note slash

Misc Legend
-----------
 |  - bar
||  - double bar
||o - repeat start
o|| - repeat end
*|  - double bar (ending)
 :  - bar (freetime)
 $  - Segno
 &  - Coda
Tempo markers -  = BPM(8/16=s8/s16), where s8 = swing 8ths, s16 = swing 16ths

            
            
Suggest correction
Creating personal tab
Creating personal tab
You can edit any tab online and save it as your Personal.

You can edit, replace or remove any tab part or add personal notes – all changes will be seen only by you.

Personal tabs can be accessed anytime from any device, even offline.
Learn more »
Give kudos to tab author, rate the tab!
1 2 3 4 5
comments
print report bad tab
guest
You may want to rate the tab now too:
select rating
Wanna post a correction for this tab? Suggest correction