Oops, an error
Loading. Please wait.

Less Cute Bass Tab

34 views 1 this week
no commentswrite comment
1 2 3 4 5
3 more votes to show rating
add to favorites
launch autoscroll
font size
0
reset
guitar tuner
Autoscroll
slow
fast
+/-
esc
set tempo
stop
Help us to improve Ultimate-Guitar.com Take our survey!
×
Author
Difficulty
intermediate
Say Anything - Less Cute

Tabbed by: Ash (XxThreeCheersxX)
email: burdickash@gmail.com

Verse I
G|------------------------------------------------------------|
D|-------------------------3----------------------------------|
A|-4----4--4-4----4--4--6-------1----1--1-1----1--1-----------| x 3
E|---------------------------------------------------4--4--4--|

G|------------------------------------------------------------|
D|-------------------------3----------------------------------|
A|-4----4--4-4----4--4--6-------1----1--1-1x------------------| 
E|---------------------------------------------------4--4--4--|

Chorus
G|-----------------------------------------------------------------|
D|-----------------1-1-1-1-1-1-1-1-4-4-4-4-4-4-4-4-3-3-3-3-3-3-3-3-|
A|-1-1-1-1-1-1-1-1-------------------------------------------------|
E|-----------------------------------------------------------------|

G|-----------------------------------------------------------------|
D|-----------------1-1-1-1-1-1-1-1-4-4-4-4-4-4-4-4-----------------|
A|-1-1-1-1-1-1-1-1---------------------------------4-4-4-4---------|
E|---------------------------------------------------------4-4-4-4-|

Verse II
G|------------------------------------------------------------|
D|-------------------------3----------------------------------|
A|-4----4--4-4----4--4--6-------1----1--1-1----1--1-----------| x 2
E|---------------------------------------------------4--4--4--|

G|-----------------------------------------------------------|
D|-----------------------------------------------------------|
A|---------------------------------------1---------1-4-4-1---|
E|------------------------------2--------------------------4-|

G|---------------------------------------------------------------|
D|-------------------------------1-1-1-1-1-1-1-1-4-4-4-4-4-4-4-4-|
A|------------1----1-1-1-4-4-4-4---------------------------------|
E|-2----4-4-4----------------------------------------------------|

Chorus x 2

Bridge
G|------------------------------------------------------------------------------------------------|
D|-----------------------------------3----1-------------------------------------------------------|
A|-1x------------4-4-4-1x----------------------1---141~-------------4-------1--4-/13\\\-----------|
E|----------------------------------------------424------------4---------4------------------------|

G|---------------|
D|---------------|
A|---------------|
E|-2x------------|

G|-------------------------------|
D|-------------------------------|
A|------------1----1-1-1-4-4-1---|
E|-2----4-4-4------------------4-|

G|--------------------------------------------------------------------|
D|-------------------------------1~--------4~-------------------------|
A|------------1----1-1-1-4-4-4-4--------------------------------------|
E|-2----4-4-4------------------------------------------------4--4--4--|

Chorus x 

Outro
G|--------------------------------|
D|--------------------------------|
A|-4-4-4-1-1-1-4~-----------------|
E|--------------------------------|

Happy playing!

************************************

| x   Dead note
| g   Grace note
| (n) Ghost note
| h   Hammer-on
| p   Pull-off
| r   Release
| >   Accented note
| t   Tapping
| b   Bend
| br  Bend release
| pb  Pre-bend
| pbr Pre-bend release
| /   Slide up
| \   Slide down
| ~   Vibrato
| s   Slap
| P   Pop
| PM  Palm mute
| TR  Trill
| N   Tremolo

************************************
Suggest correction
Give kudos to tab author, rate the tab!
1 2 3 4 5
comments
print report bad tab
guest
You may want to rate the tab now too:
select rating
Wanna post a correction for this tab? Suggest correction