Oops, an error
Loading. Please wait.

Lesscute tab

3,067 views 1 this week
1 commentread comment
1 2 3 4 5
x 5
add to favorites
×
Save as Personal and add changes to this tab that will be seen only by you. Learn more ›
×
You can save this tab as Personal to edit and correct it or add notes. All changes will be seen only by you. Learn more »
launch autoscroll
font size
0
reset
how to read this tab
guitar tuner
edit
Autoscroll
slow
fast
+/-
esc
set tempo
stop
Tabbed by:RudyS
Email: rudy_schueder@hotmail.com

Tuning: Eb Ab Db Gb Bb eb
Hey, this is my first tab and since there was no tab for one of my favourite Say 
songs, I figured I'd make one for it.
As to the accuracy of the tab, I'm quite confident its correct but feel free to e-mail
any suggestions or whatever. (P.S. I don't tab chorus rhythms...)


VERSE ("...taught to bohemian crowds...")
e|---------------------------------------------------------------------------|
B|----------7---7---7---7---7---7---7---7------------------------------------|
G|----------7---7---7---7---7---7---7---7------------------------------------|
D|----------x---x---x---x---x---x---x----------------------------------------|
A|--------5---5---5---7------------------------------------------------------|
E|------------------------7---7---7---5--------------------------------------|

CHORUS (I wont write the rhythms its pretty standard)
("He's like a less cute..."
e|---------------------------------------------------------------------------|
B|---------------------------------------------------------------------------|
G|---------7---9---7---6-----------------------------------------------------|
D|---------7---x---x---x-----------------------------------------------------|
A|---------x---7---5---4-----------------------------------------------------|
E|---------7---0---3---2-----------------------------------------------------|

VERSE ("Mountain Man brag about your...")
e|---------------------------------------------------------------------------|
B|----------7---7---7---7---7---7---7---7------------------------------------|
G|----------7---7---7---7---7---7---7---7------------------------------------|
D|----------x---x---x---x---x---x---x---x------------------------------------|
A|--------5---5---5---7------------------------------------------------------|
E|------------------------7---7---7---5--------------------------------------|

PRE-CHORUS ('Now, he's next to me..")
e|---------------------------------------------------------------------------|
B|---------------------------------------------------------------------------|
G|-----7--9-8--1111-1111--14-14-14-------------------------------------------|
D|-----x--x-x--x-x--x-x---xx-xx-xx---x3-then---22222222-55555555-------------|
A|-----5--7-7--9-9--9-9---12-12-12-------------22222222-55555555-------------|
E|-----3--5-5--7-7--7-7---10-10-10-------------00000000-33333333-------------|

 and in the background...                     ("...I miss that day you...")
e|----------------------------------------------------------------------------|
B|----------------------------------------------------------------------------|
G|---------------------------------------------99999999--1212121212121212-----|
D|---------------------------------------------xxxxxxxx--xxxxxxxxxxxxxxxx-----|
A|---------------------------------------------77777777--1010101010101010-----|

CHORUS ("He's like a less cute...)
e|---------------------------------------------------------------------------|
B|---------------------------------------------------------------------------|
G|---------7---9---7---6-----------------------------------------------------|
D|---------7---x---x---x-----------------------------------------------------|
A|---------x---7---5---4-----------------------------------------------------|
E|---------7---0---3---2-----------------------------------------------------|

BRIDGE ("He has no inkling of...")
e|-------------------------------------------7-9-10---5h7p5------------------|
B|-------------3-3-3----7-5---------------3-----------------7-5-5h7p5--------|
G|--------2-4--------4----------2-4-----4-----------------------------7-4-4b-|
D|----4-4-------------------4-4-----4-4--------------------------------------|
A|---------------------------------------------------------------------------|
E|---------------------------------------------------------------------------|

PRE-CHORUS ("Now, you're here again...")
e|---------------------------------------------0~---3~-----------------------|
B|---------------------------------------------0~---0~-----------------------|
G|-----7--9-8--1111-1111--14-14-14-------------0~---0~-----------------------|
D|-----x--x-x--x-x--x-x---xx-xx-xx---x3-then---2~---0~-----------------------|
A|-----5--7-7--9-9--9-9---12-12-12-------------2~---2~-----------------------|
E|-----3--5-5--7-7--7-7---10-10-10-------------0~---3~-----------------------|


CHORUS
e|----------------------------------------------------------------------------|
B|----------------------------------------------------------------------------|
G|---------7---9---7---6------------------------------------------------------|
D|---------7---x---x---x------------------------------------------------------|
A|---------x---7---5---4------------------------------------------------------|
E|---------7---0---3---2------------------------------------------------------|

That's all folks!

************************************

| /   slide up
| \   slide down
| h   hammer-on
| p   pull-off
| ~   vibrato
| +   harmonic
| x   Mute note
| b   Bend
| pb  Pre-bend
| br  Bend release
| pbr Pre-bend release
| brb Bend release bend

************************************

            
            
Suggest correction
Creating personal tab
Creating personal tab
You can edit any tab online and save it as your Personal.

You can edit, replace or remove any tab part or add personal notes – all changes will be seen only by you.

Personal tabs can be accessed anytime from any device, even offline.
Learn more »
comments
print report bad tab
1 comment total.
0 reply
ross123 148 Mar 13, 2012 08:27 AM

good tab but awkward to find cause of the way you typed title haha

guest
You may want to rate the tab now too:
select rating
Wanna post a correction for this tab? Suggest correction