Oops, an error
Loading. Please wait.

Overbiter bass

1,154 views 3 this week
no commentswrite comment
1 2 3 4 5
x 3
add to favorites
×
Save as Personal and add changes to this tab that will be seen only by you. Learn more ›
×
You can save this tab as Personal to edit and correct it or add notes. All changes will be seen only by you. Learn more »
launch autoscroll
font size
0
reset
guitar tuner
edit
Autoscroll
slow
fast
+/-
esc
set tempo
stop
Author
Difficulty
-------------------------------------------------------------------------------
                             Overbiter - Say Anything 
-------------------------------------------------------------------------------

This is one of my favorite songs on the new album and it has a great bass line. 
Didn't see a tab for it, so I 
figured I'd just tab it myself. I'm fairly certain it's correct. In addition, the 
chorus can be a bit confusing at 
first. Every time you play that first bit and it has three different ending variations.  

Tuning: Standard

Verse - Bass comes in at 0:26
G|-------------------------------------------------------------------------|
D|---------------------------------------------------------8h10p8----------|
A|-/6---6-8-----4-4/8-6---------6---6-8-------4-4/8-6------------11--------|
E|----8------------------4---------8-------------------4-------------------|

Pre Chorus                                
G|------------------------------------------------------------|
D|------------------------------------------------------------|
A|-3-3-3-4-4-4-4-4-8-8-8-10-10-10-11-11-3-3-3-4-4-4-4-4-6-----|
E|------------------------------------------------------------|
 
Chorus           play first time   play 2nd and 4th time    play 3rd time 
G|---------8--|--------------8---|-------------------|---------------------------|
D|-------6----|----6/8-8h10------|---6/8---6--6-6----|-----/10-8-6/10-8----------|
A|-6-8-8------|--4---------------|-4-----4-----------|----4----------------------|
E|------------|------------------|-------------------|---------------------------|

Verse 2 - Not the same as the first verse, note the different ending
G|-------------------------------------------------------------------------|
D|---------------------------------------------------------8h10p8----------|
A|-/6---6-8-----4-4/8-6---------6---6-8-------4-4/8-6------------11--------|
E|----8------------------4---------8-------------------4-------------------|

G|----------------------------------------------|
D|----------------------------------------------|
A|-/6---6-8-----4-4/8-6---------6---6-8---------|
E|----8------------------4---------8------------|

Crazy ending bit
G|-------------------------------/15-13-----------12-13--------------------------------|
D|-11-11h13/15/13-11-13----------------15-15-15--------11------------------------------|
A|-----------------------11---11-------------------------------6---6-8----4-4/8-6------|
E|----------------------------------------------------------------8----------------4---|

Pre Chorus                                
G|------------------------------------------------------------|
D|------------------------------------------------------------|
A|-3-3-3-4-4-4-4-4-8-8-8-10-10-10-11-11-3-3-3-4-4-4-4-4-6-----|
E|------------------------------------------------------------|

Chorus           play first time   play 2nd and 4th time    play 3rd time 
G|---------8--|--------------8---|-------------------|---------------------------|
D|-------6----|----6/8-8h10------|---6/8---6--6-6----|-----/10-8-6/10-8----------|
A|-6-8-8------|--4---------------|-4-----4-----------|----4----------------------|
E|------------|------------------|-------------------|---------------------------|

Bridge - Part 1
G|----------------------------------------------12/13/12------------|
D|--------6-------------6-6-6---------6------10---------------------|
A|------------------------------------------------------------------|
E|-4--4-4---4--4----4-4-------4---4-4---4---------------------------|

Bridge - Part 2                                                        x4
G|---------------------------------------------------------------------------|
D|---------------------------------------------------------------------------|
A|--/13-11-------/13-11--------/15-13----------/15-13---15-13-15-------------|
E|-9--------9-9-9-------9-9--11-------11-11-11-------------------------------|

Bridge Ending 
G|-13p12p10h12----------------------8----------------------------------------|
D|--------------13p11p10h11-----/10------------------------------------------|
A|---------------------------6-6---------------------------------------------|
E|---------------------------------------------------------------------------|

Chorus           play first time   play 2nd and 4th time    play 3rd time
G|---------8--|--------------8---|-------------------|---------------------------|
D|-------6----|----6/8-8h10------|---6/8---6--6-6----|-----/10-8-6/10-8----------|
A|-6-8-8------|--4---------------|-4-----4-----------|----4----------------------|
E|------------|------------------|-------------------|---------------------------|

Outro
G|-----------------------------------------------|
D|--------------------------6-6/-----------------|
A|------------------------4----------------------|
E|-/13-------------------------------------------|

And that's it. Or at least it's close anyway. Pretty fun song and fairly challenging. 
While I realize there are probably some mistakes in this, please refrain from negative 
comments and just try to figure it out. At the very least this tab should give you a 
good starting point.  

| /  slide up
| \  slide down
| h  hammer-on
| p  pull-off
| ~  vibrato
| +  harmonic
| x  Mute note
===============================================================================

            
            
Suggest correction
Creating personal tab
Creating personal tab
You can edit any tab online and save it as your Personal.

You can edit, replace or remove any tab part or add personal notes – all changes will be seen only by you.

Personal tabs can be accessed anytime from any device, even offline.
Learn more »
Give kudos to tab author, rate the tab!
1 2 3 4 5
comments
print report bad tab
guest
You may want to rate the tab now too:
select rating
Wanna post a correction for this tab? Suggest correction