Oops, an error
Loading. Please wait.

Peace Out tab

4,270 views 1 this week
2 commentsread comments
1 2 3 4 5
x 5
add to favorites
×
Save as Personal and add changes to this tab that will be seen only by you. Learn more ›
×
You can save this tab as Personal to edit and correct it or add notes. All changes will be seen only by you. Learn more »
launch autoscroll
font size
0
reset
how to read this tab
guitar tuner
edit
Autoscroll
slow
fast
+/-
esc
set tempo
stop
Difficulty
intermediate
-------------------------------------------------------------------------------
                             Peace Out – Say Anything
-------------------------------------------------------------------------------
Tabbed by: Erick
Email: erick.nass@gmail.com

Great song from the new Say Anything album, one of my favs.
Im primarily putting this up here to provide some incentive for someone else to figure 
this out a little better.
Ive been dying to play and sing this song, but Im having trouble figuring out the right 
chords and picking.
Also it makes it harder with the different sounding instrument being played.
Comments and corrections or alternate suggestions are wanted, because I gotta
figure it out. If I can figure out the rest ill post it. Thanks.

Tuning:standard

Intro/verse
e|-------------------------------------|
B|---10--9--7--9-----------------------|
G|---x-------------9----9--7--6--------|
D|---x-------------7----7--------9-----| (x6)
A|---x-------------9----9--------7-----|
E|---9---------------------------------|

Verse(they begin playing something like this)
e|-------------------------------------------------|
B|-------------------------------------------------|
G|--------9-----------9--9-------9--9--------9-----|
D|-----7--7--7-----7--7--7----7--7--7-----7--7-----|(x4)
A|---5----5--5--------x-----9----9--9--7-----7-----|
E|--------------5-----5----------------------------|

Chorus(chord progression only, listen for strumming)
e|------------------------|
B|------------------------|
G|---9----9----9----9-----|
D|---7----7----7----7-----|
A|---5----9----7----7-----|
E|-------------5----------|

            
            
Suggest correction
Creating personal tab
Creating personal tab
You can edit any tab online and save it as your Personal.

You can edit, replace or remove any tab part or add personal notes – all changes will be seen only by you.

Personal tabs can be accessed anytime from any device, even offline.
Learn more »
comments
print report bad tab
2 comments total.
+4 reply
Footballitis 10 Mar 23, 2012 02:48 PM

Not terrible.

To me its more like this:

INTRO:

e|-------------------------------------|
B|---10--9--7--9--5---5--3--2--3--0----|
G|-------------------------------------|
D|---0---------------------------------| (x6)
A|----------------0---0----------------|
E|-------------------------------------|

Then the verse just follows the chords:

e|--------------------|
B|--------------------|
G|-----9--9--9--9-----|
D|-----7--7--7--7-----
A|-----5--7--9--7-----|
E|--------5-----------|

Then the chorus is just follows the chords:

e|--------------------|
B|--------------------|
G|-----9--9--6--9-----|
D|-----7--7--7--9-----
A|-----5--7--7--7-----|
E|--------5--5---------|

With the "go get high with all of your dumb friends" back to the chords from the verse

Not perfect but an improvement imo

0 reply
TheThirdDay 553 Sep 17, 2013 08:30 PM

How I play the intro:

e|-5-4-2-4-0-------0---------------|
b|---------------------3-2-0------3|
g|-------------------------------2-|
d|-0-0-0-0---------4-------2----0--|
a|---------0-----------------------|
e|---------------------------------|

e|-5-4-2-4-0-------0---------------|
b|---------------------3-2-0-------|
g|---------------------------------|
d|---0-0-0---------4-------2-------|
a|---------0-----------------------|
e|---------------------------------|

guest
Wanna post a correction for this tab? Suggest correction