Oops, an error
Loading. Please wait.

Total Revenge tab

version 3
version 3

Whole song

Interactive

19,876 views 1 this week
1 commentread comment
1 2 3 4 5
x 5
add to favorites
×
Save as Personal and add changes to this tab that will be seen only by you. Learn more ›
×
You can save this tab as Personal to edit and correct it or add notes. All changes will be seen only by you. Learn more »
launch autoscroll
font size
0
reset
how to read this tab
guitar tuner
edit
Autoscroll
slow
fast
+/-
esc
set tempo
stop
Author
Difficulty
-------------------------------------------------------------------------------
                             Say Anything- Total Revenge
-------------------------------------------------------------------------------
Tabbed by:Skye
Email:ldskye@hotmail.com

Have not seen a good tab of this song so i watched videos of Max playing it and figured 
out its mostly correct.

Tuning:Standard
    Intro

e|-----------------------------------------------------------------------------|
B|-----------------------------------------------------------------------------|
G|-------8-8-8------6-6-6------------------------------------------------------|
D|---------------------------------------7-6-----------------------------------|x2
A|-9/11--------7-9------------2-4-2-4-2--x-x-----------------------------------|
E|------7-7-7------5-5-5--2h4-0-0-0-0-0--0-0-----------------------------------|

 Verse: these are chords figure out rhythm- when i like you its total revenge...
e|------------------------------------------------------------------------------|
B|------------------------------------------------------------------------------|
G|-8-7---7-------------------------------------------------8-7---------9--------|
D|-9-9-9-9-------continuation of this going to pre chorus--9-9---9-11--9--------|
A|-7-7-9-7-------------------------------------------------7-7---9-11--7--------|
E|-7-7-7-7-------------------------------------------------7-7---7-9------------|
   Pre Chorus: figure out rhythm- wrap me up in a plastic case...
e|------------------------------------------------------------------------------|
B|------------------------------------------------------------------------------|
G|----4-------------------------------------------------------------------------|
D|-11-2-9-4---9-9---------------------------------------------------------------|
A|-11-2-9-4---8-7---------------------------------------------------------------|
E|-9--0-7-2---7-7---------------------------------------------------------------|
    Chorus: figure out rhythm- theres a man assigned to me...
e|---------------------------------------------------------------------------|
B|---------------------------------------------------------------------------|
G|-----4---------------------------------------------------------------------|
D|-9-4-2---------------------------------------------------------------------|
A|-9-4-2---------------------------------------------------------------------|
E|-7-2-0---------------------------------------------------------------------|
     Bridge: figure out rhythm- but maybe i can show you baby...
e|---------------------------------------------------------------------------|
B|---------------------------------------------------------------------------|
G|-8-------------------------------------------------------------------------|
D|-9-9-4---------------------------------------------------------------------|
A|-7-9-4---------------------------------------------------------------------|
E|-7-7-2---------------------------------------------------------------------|

Order:
Intro
Verse
Pre-Chorus
Intro
Verse
Pre-Chorus
Chorus
Bridge
Chorus

| /  slide up
| \  slide down
| h  hammer-on
| p  pull-off
| ~  vibrato
| +  harmonic
| x  Mute note
===============================================================================

            
            
Suggest correction
Creating personal tab
Creating personal tab
You can edit any tab online and save it as your Personal.

You can edit, replace or remove any tab part or add personal notes – all changes will be seen only by you.

Personal tabs can be accessed anytime from any device, even offline.
Learn more »
comments
print report bad tab
1 comment total.
0 reply
jtrocks44 256 Aug 06, 2008 03:53 PM

the only thing i would change is the:
|-9-| |-8-|
|-9-| in the verse to a |-9-|
|-7-| |-7-|

other than that, i think it's great.

guest
You may want to rate the tab now too:
select rating
Wanna post a correction for this tab? Suggest correction