Oops, an error
Loading. Please wait.

Wow I Can Get Sexual Too bass

version 1
version 1

Whole song

Interactive

4,891 views 3 this week
2 commentsread comments
1 2 3 4 5
x 4
add to favorites
×
Save as Personal and add changes to this tab that will be seen only by you. Learn more ›
×
You can save this tab as Personal to edit and correct it or add notes. All changes will be seen only by you. Learn more »
launch autoscroll
font size
0
reset
guitar tuner
edit
Autoscroll
slow
fast
+/-
esc
set tempo
stop
Author
Difficulty
Band: Say Anything
Song: Wow, I Can Get Sexual Too
Bassist: Alex Kent
Album: Is A Real Boy
Tuning: Standard (E,A,D,G)

x: mute (stop)
\: slide down 
Intro: (No Bass)
G|----R-------|
D|----E-------|
A|----S-------|
E|----T-------|

Verse: (No Bass)
G|----R-------|
D|----E-------|
A|----S-------|
E|----T-------|

Chorus: (No Bass)
G|----R-------|
D|----E-------|
A|----S-------|
E|----T-------|

Verse: (bass plays this with the keyboard, no elevens)
   GF              F
G|----|         G|---------|
D|----|         D|---------|
A|----| 7x      A|---------|  1x
E|-31-|         E|-1--1111-|

Chorus:
   A          F   C      F    C      F    G
G|-22222222-|-----5555-|------5555-|------0000-|
D|----------|-3333-----|-3333------|-3333------|
A|----------|----------|-----------|-----------|  1x
E|----------|----------|-----------|-----------|
   A          F    C      F    G      C
G|-22222222-|------5555-|------0000-|------------|
D|----------|-3333------|-3333------|------------|
A|----------|-----------|-----------|-33333--3-3-|  1x
E|----------|-----------|-----------|------------|

Interlude: (Find the rhythm to play this with) 
   C         A         E         G
G|---------|---------|---------|---------|
D|---------|---------|---------|---------|
A|-3-333-3-|-0-000-0-|---------|---------|  4x
E|---------|---------|-0-000-0-|-3-333-3-|

Chorus: 
   A         F   C     F   C     F   G
G|-2-2-2-2-|-----5x--|-----5x--|-----0-0-|
D|---------|-3-3-----|-3-3-----|-3-3-----|
A|---------|---------|---------|---------|  1x
E|---------|---------|---------|---------|
   A          F   C     F   G     C
G|-2-2-2-2\-|-----5x--|-----0-0-|---------|
D|----------|-3-3-----|-3-3-----|---------|
A|----------|---------|---------|-3-3-3-3-|  1x
E|----------|---------|---------|---------|

Outro: 
   A         F    C      F    C      F    G
G|-2222222-|------5555-|------5555-|------0000-|
D|---------|-3333------|-3333------|-3333------|
A|---------|-----------|-----------|-----------|  1x
E|---------|-----------|-----------|-----------|
   A          F    C      F   G
G|-22222222-|------5555-|-----0000-|-R----|
D|----------|-3333------|-3333-----|-E----|
A|----------|-----------|----------|-S----|  1x
E|----------|-----------|----------|-T----|

hope u like this tab it's my first, questions, comments, complaints, email me at
game_guy1193@yahoo.com

            
            
Suggest correction
Creating personal tab
Creating personal tab
You can edit any tab online and save it as your Personal.

You can edit, replace or remove any tab part or add personal notes – all changes will be seen only by you.

Personal tabs can be accessed anytime from any device, even offline.
Learn more »
comments
print report bad tab
2 comments total.
0 reply
scorpiobone12 10 Aug 01, 2008 09:44 PM

way better than version 2
5*

0 reply
Ragin_Asian 98 Aug 07, 2010 10:40 PM

play it an octave down and by jove its completely right ^-^

guest
You may want to rate the tab now too:
select rating
Wanna post a correction for this tab? Suggest correction