Oops, an error
Loading. Please wait.

Wow I Can Get Sexual Too bass

version 2
version 2

Whole song

Interactive

2,523 views 3 this week
5 commentsread comments
1 2 3 4 5
x 4
add to favorites
×
Save as Personal and add changes to this tab that will be seen only by you. Learn more ›
×
You can save this tab as Personal to edit and correct it or add notes. All changes will be seen only by you. Learn more »
launch autoscroll
font size
0
reset
guitar tuner
edit
Autoscroll
slow
fast
+/-
esc
set tempo
stop
Difficulty
There are random licks and octaves he plays in the bridge that I couldn't figure out, 
the rest I'm very sure about. I hope you enjoy it!

  Verse [x6]
G|-------|
D|-------|
A|-------|
E|-5---1-|

  Verse Ending [x1]
G|---------------------|
D|---------------------|
A|---------------------|
E|-5---1---1---1-1-1-1-|

  First Chorus [x1]
G|----------------|----------------|----------------|----------------|
D|7---7---7---7---|3---3-----------|3---3-----------|3---3---5---5---|
A|----------------|--------3---3---|--------3---3---|----------------|
E|----------------|----------------|----------------|----------------|

G|----------------|----------------|----------------|5---5---5-------|
D|7---7---7---7---|3---3-----------|3---3---5---5---|------------7\-3|
A|----------------|--------3---3---|----------------|----------------|
E|----------------|----------------|----------------|----------------|

  Verse [x6]

  Verse Ending [x1]

  Second Chorus
G|----------------|----------------|----------------|----------------|
D|7-7-7-7-7-7-7-7-|3-3-3-3---------|3-3-3-3---------|3-3-3-3-5-5-5-5-|
A|----------------|--------3-3-3-3-|--------3-3-3-3-|----------------|
E|----------------|----------------|----------------|----------------|

G|----------------|----------------|----------------|5-5-5-5---------|
D|7-7-7-7-7-7-7-7-|3-3-3-3---------|3-3-3-3-5-5-5-5-|----------------|
A|----------------|--------3-3-3-3-|----------------|----------------|
E|----------------|----------------|----------------|----------------|

  Bridge [x4]
G|-------------|--------------|-------------|-------------|
D|-------------|--------------|-------------|-------------|
A|3--3-3---3-3-|-0--0-0---0-0-|-------------|-------------|
E|-------------|--------------|0--0-0---0-0-|3--3-3---3-3-|

  Third Chorus [x1]
G|----------------|---------------|----------------|----------------|
D|7---7---7---7---|3---3----------|3---3-----------|3---3---5---5---|
A|----------------|--------3------|--------3-------|----------------|
E|----------------|---------------|----------------|----------------|

G|----------------|---------------|----------------|5---5---5---5---|
D|7---7---7---7---|3---3----------|3---3---5---5---|----------------|
A|----------------|--------3------|----------------|----------------|
E|----------------|---------------|----------------|----------------|

  Last Chorus [x1]
G|----------------|----------------|----------------|----------------|
D|7-7-7-7-7-7-7-7-|3-3-3-3---------|3-3-3-3---------|3-3-3-3-5-5-5-5-|
A|----------------|--------3-3-3-3-|--------3-3-3-3-|----------------|
E|----------------|----------------|----------------|----------------|

G|----------------|----------------|----------------|----------------|
D|7-7-7-7-7-7-7-7-|3-3-3-3---------|3-3-3-3-5-5-5-5-|----------------|
A|----------------|--------3-3-3-3-|----------------|----------------|
E|----------------|----------------|----------------|----------------|

            
            
Suggest correction
Creating personal tab
Creating personal tab
You can edit any tab online and save it as your Personal.

You can edit, replace or remove any tab part or add personal notes – all changes will be seen only by you.

Personal tabs can be accessed anytime from any device, even offline.
Learn more »
comments
print report bad tab
5 comments total. Showing first comments.
0 reply
bassbomb1193 320 Nov 24, 2007 02:56 PM

bass comes in on second verse


my tab is better

0 reply
bassbomb1193 320 Nov 24, 2007 02:57 PM

and i have the same bridge freakin coppier

0 reply
bassist12 31 Nov 25, 2007 09:42 AM

I heard bass in the first verse, and that's how I heard the bridge. I didn't copy anything.

guest
Wanna post a correction for this tab? Suggest correction