Oops, an error
Loading. Please wait.

Wow I Can Get Sexual Too chords

version 2
version 2

Whole song

Interactive

997 views 24 this week
no commentswrite comment
1 2 3 4 5
3 more votes to show rating
add to favorites
×
Save as Personal and add changes to this tab that will be seen only by you. Learn more ›
×
You can save this tab as Personal to edit and correct it or add notes. All changes will be seen only by you. Learn more »
launch autoscroll
font size
0
reset
transpose
0
reset
simplify chords
display chords
guitar tuner
edit
Autoscroll
slow
fast
+/-
esc
set tempo
stop
Strumming
There is no strumming pattern for this song yet. and get +5 IQ
Tuning: half step down

This is taken from the nervous energies session on youtube: 
https://www.youtube.com/watch?v=F_rn2HmOvu0&list=PLS1FC3lHojzkol4h3zFxxx5RFNJOZ90yl&index=3

It'a weird key but sounds alright. 

Verse Chords:
e|-------------------|
B|-------------------|
G|-------------------|
D|----4-------2------|
A|----4-------2------|
E|----2-------0------|
      F5      Em

Chorus:
e|---------------------------------------------------------------------------|
B|----------------------------------------4----------------------------------|
G|--------------4---------4---------------4----------------------------------|
D|----4----2----4----2----4----2----4-----x----------------------------------|
A|----2----2----2----2----2----2----4-----2----------------------------------|
E|----4----0---------0---------0----2----------------------------------------|
     G#m7  Em   B5   Em   B5   Em   F#5   B

Bridge:
e|---------------------------------------------------------------------------|
B|----4-----4----------------------------------------------------------------|
G|----4-----4-----8----------------------------------------------------------|
D|----x-----4-----8-----4----------------------------------------------------|
A|----2-----x-----6-----4----------------------------------------------------|
E|----------4-----------2----------------------------------------------------|
      B    G#m7   D#5   F#5


[Verse 1]

F5 Em (in single quick strum for all verses)
If I die and go to hell real soon,
F5 Em
it will appear to me as this room.
F5 Em
And for eternity I'd lay in bed
F5 Em
in my boxers, half stoned, 
with the pillow under my head.


[Verse 2]

F5 Em
I'd be chatting on the interweb;
F5 Em
maggots pray upon the living dead.
F5 Em
I had no interest in the things she said.
Em
On the phone every day,
                          B5
I'll permanently hit the hay hay.


[Chorus]

G#m7                          Em
I called her on the phone and she touched herself.
B5                                       Em
She touched herself. She touched herself. 
G#m7                          Em
I called her on the phone and she touched herself.
F#5       Em        B
I laughed myself to sleep.

At this rate,


[Verse 3]

F5 Em
I'll be heading for electric chairs.
F5 Em
I'm only human with my cross to bear.
F5 Em
When she described her underwear
Em                                              B5
I forgot all the rules my rabbi taught me in the old schul.

F5 Em
You're too young to be this empty girl
F5 Em
I'll prepare you for a sick dark world
F5 Em
Know that you'll be my downfall.
Em                        G#m7
But I call and I call and I call.


[Chorus]

G#m7                          Em
I called her on the phone and she touched herself.
B5                                       Em
She touched herself. She touched herself. 
G#m7                          Em
I called her on the phone and she touched herself.
F#5       Em        B
I laughed myself to sleep.


[Bridge]

B                  G#m7   
I don't know what I want.
D#5                F#5
I don't know what I want.
B                  G#m7   
I don't know what I want.
D#5                F#5
I don't know what I want.

I don't know what I want. (Met you on the internet)

I don't know what I want. (Then I lied about it)

I don't know what I want. (Met you on the internet)

I don't know what I want. (Then I lied about it)


[Chorus x2]

G#m7                          Em
I called her on the phone and she touched herself.
B5                                       Em
She touched herself. She touched herself. 
G#m7                          Em
I called her on the phone and she touched herself.
F#5       Em        B
I laughed myself to sleep.

            
            
Suggest correction
Creating personal tab
Creating personal tab
You can edit any tab online and save it as your Personal.

You can edit, replace or remove any tab part or add personal notes – all changes will be seen only by you.

Personal tabs can be accessed anytime from any device, even offline.
Learn more »
Give kudos to tab author, rate the tab!
1 2 3 4 5
comments
print report bad tab
guest
You may want to rate the tab now too:
select rating
Wanna post a correction for this tab? Suggest correction