Oops, an error
Loading. Please wait.

Writhing South tab

23,292 views 15 this week
5 commentsread comments
1 2 3 4 5
x 13
add to favorites
×
Save as Personal and add changes to this tab that will be seen only by you. Learn more ›
×
You can save this tab as Personal to edit and correct it or add notes. All changes will be seen only by you. Learn more »
launch autoscroll
font size
0
reset
how to read this tab
guitar tuner
edit
Autoscroll
slow
fast
+/-
esc
set tempo
stop
Author
The Writhing South
Say Anything
...Is a real boy
Alright this is all for guitar 1, I'm too lazy to do anything else.
But any feedback would be great
Email me at donnknotts@gmail.com

Intro (Played Twice, Second Time W/Distortion)
e|----------------------------------------------------------------------2--|
B|----------------------------------------------------------------------2--|
G|--------------------------------------------------------------4-4-4------|
D|xx-11-11-11-11-11-11-11--xx-7-7-7-7-7-7-7-xx-7-7-7-7-7-7-7-xx-4-4-4-4---4|
A|xx-9--11-9--7--7--7--7---xx-5-7-5-4-4-4-4-xx-5-7-5-4-4-4-4-xx-2-2-2-4---4|
E|--------------------------------------------------------------------2---2|

e|-------------------------------------------------------------------------|
B|-------------------------------------------------------------------------|
G|--------------------------------------------------------------4-4-4------|
D|xx-11-11-11-11-11-11-11--xx-7-7-7-7-7-7-7-xx-7-7-7-7-7-7-7-xx-4-4-4-4~---|
A|xx-9--11-9--7--7--7--7---xx-5-7-5-4-4-4-4-xx-5-7-5-4-4-4-4-xx-2-2-2-4~---|
E|--------------------------------------------------------------------2~---|

Verse
 "Searching for blood in the..."
e|----------------------------------------------|
B|----------------------------------------------|
G|----------------------------------------------|
D|---7------7-------4-------6h7p6---------------|
A|-5---5--4---4---4----7--7--------7------------|
E|--------------2-------------------------------|

 "I've got this red right hand..."
e|----------------------------------------------|
B|----------------------------------------------|
G|-7--7--7--6--6--x-----------9--9--9--9--9-----|
D|-7--7--7--7--7--x--4--4--4--9--9--9--9--9-----|
A|-5--5--5--4--4--x--4--4--4--7--7--7--7--7-----|
E|-------------------2--2--2--------------------|


Prechorus
 "Hey......"
E|--------------------------------------------|
B|--------------------------------------------|
G|--7-7--7-7-7--7-9-9--9-9-9--6-6-6-6-9-9-9-9-|
D|--------------------------------------------|
A|--5-5--5-5-5--5-7-7--7-7-7--4-4-4-4-7-7-7-7-|
E|--------------------------------------------|


Chorus
E|---------------------------------------------------------------|
B|---------------------------------------------------------------|
G|--7--7-----------7--7-----------7--7-----------9-9-9-----------|
D|--7--7---7-7-7---7--7---7-7-7---7--7---7-7-7---9-9-9---7-7-7-7-|
A|--5--5---7-7-7---5--5---7-7-7---5--5---7-7-7---7-7-7---7-7-7-7-|
E|--5--5---5-5-5---5--5---5-5-5---5--5---5-5-5-----------5-5-5-5-|

Bass repeats intro...
Guitar plays some natural harmonics, real easy to figure out, and once again I am lazy

Heres the basics of that Breakdown

E|-----------------------------------------|
B|-----------------------------------------|
G|-----------------4-------6-6-6-6-6-5h6-6-|
D|-------------------7-6-4-----------------|
A|--5--5-5-5-5-4-2-------------------------|
E|-----------------------------------------|
Suggest correction
Creating personal tab
Creating personal tab
You can edit any tab online and save it as your Personal.

You can edit, replace or remove any tab part or add personal notes – all changes will be seen only by you.

Personal tabs can be accessed anytime from any device, even offline.
Learn more »
comments
print report bad tab
5 comments total. Showing first comments.
+1 reply
MedicreDemon 50 Oct 20, 2006 10:29 AM

nice job on the intro

-1 reply
JustinFoldsFive 89 Aug 12, 2007 01:07 PM

Your verse is just a little bit off, here is the correct first verse.

e|------------------------------------------------------|
B|-------------------------------------------------------|
G|-------------------------------------------------------|
D|---7-----6---6---------2----7---6h7--------------------------|
A|-5---5-4---4---4-----4----7---7-----7----------------------------|
E|-------------------2-------------------------------------|

+2 reply
Blassassin 209 Jan 03, 2009 12:26 PM

Justin, your verse is off too

e|------------------------------------------------------|
B|------------------------------------------------------|
G|-----------------------2------------------------------|
D|---7-----7---7--------------7---6h7-------------------|
A|-5---5-4---4---4-----4----7---7-----7-----------------|
E|-------------------2----------------------------------|

guest
You may want to rate the tab now too:
select rating
Wanna post a correction for this tab? Suggest correction