Oops, an error
Loading. Please wait.

You Should Lie With Me intro bass

1,659 views 1 this week
1 commentread comment
1 2 3 4 5
x 5
add to favorites
×
Save as Personal and add changes to this tab that will be seen only by you. Learn more ›
×
You can save this tab as Personal to edit and correct it or add notes. All changes will be seen only by you. Learn more »
launch autoscroll
font size
0
reset
guitar tuner
edit
Autoscroll
slow
fast
+/-
esc
set tempo
stop
This is pretty much all the bass does the whole song-- but theres one part ahts 
in the middle.

---------------------------------------------------------------9---9--|
-----------------6-7-7-7-6-----------------------6-7-7-7-6------------|
-----------7-7-7-----------7-7-7-----------7-7-7-----------5/7---7----|
---0-0-5-5-------------------------0-0-5-5----------------------------|
Suggest correction
Creating personal tab
Creating personal tab
You can edit any tab online and save it as your Personal.

You can edit, replace or remove any tab part or add personal notes – all changes will be seen only by you.

Personal tabs can be accessed anytime from any device, even offline.
Learn more »
comments
print report bad tab
1 comment total.
0 reply
Dire182 10 Aug 30, 2008 07:59 AM

I think the ending goes something like this:

G|-----9---9--|
D|-7/9---9----|
A|------------|
E|------------|

guest
Wanna post a correction for this tab? Suggest correction