Oops, an error
Loading. Please wait.

I Surrender tab

by Saybia
25,025 views 15 this week
4 commentsread comments
1 2 3 4 5
x 7
add to favorites
×
Save as Personal and add changes to this tab that will be seen only by you. Learn more ›
×
You can save this tab as Personal to edit and correct it or add notes. All changes will be seen only by you. Learn more »
launch autoscroll
font size
0
reset
how to read this tab
guitar tuner
edit
Autoscroll
slow
fast
+/-
esc
set tempo
stop
SAYBIA - I surrender 
(These Are The Days)

Tabbed by Ejlstrup1 alias Jonas Krog DK

The song is played with a capo on 2. fret. The chords in the parentheses are played by
the other instruments, such as piano, bass etc. I have named the guitar chords as where
they played without a capo. Hope it isn't too difficult. Have fun!

Intro (Play it twice):

 
e-|---0-----|---0----|---0----|---0----|---0----|---0----|---0---| 
B-|---12----|---10---|---9----|---5----|---3----|---1----|---5---|
G-|---11----|---11---|---10---|---6----|---4----|---2----|---6---|
D-|---12----|---12---|---11---|---7----|---5----|---3 ---|---7---|
A-|---0-----|---0----|---0----|---0----|---0----|---0----|---0---|
E-|---------|--------|--------|--------|--------|--------|-------|

NB!
 
1. e-|---0---|  
   B-|---1---|
   G-|---0---|
   D-|---2---|
   A-|---3---|
   E-|---3---|


2. e-|---3---|  
   B-|---0---|
   G-|---0---|
   D-|---0---|
   A-|---2---|
   E-|---3---|


3. e-|---3---|  
   B-|---3---|
   G-|---0---|
   D-|---0---|
   A-|---2---|
   E-|---3---| 
1. The C - chord is played like this.
2. The G - chord in the verse is played like this.
3. The G - chord in the chorus is played like this      


Verse 1:

Am (Hm)                           C (D)
A million suns are glowing in the night
                     Em (F#m)           G (A)              
everything is quiet, except for all the voices in my head 
              Am (Hm)
that say your name
                    C (D)             Em (F#m)  
tonight I'm letting go, about to give in

D (E) - Dsus4 (E) - D (E) - Dsus4 (E)



Chorus:
G (A)     D (E) 
I         surrender myself
Am (Hm)            C (D)
into the arms of a beautiful stranger
G (A)     D (E)               Am (Hm)
I         surrender myself to you
   C (D)
to you

Verse 2:
Am (Hm                            C (D)
There is only one bridge left for me
                   Em (F#m)
my heart is almost free
                G (A)
beautiful by my side
                         Am (Hm)
but all I think about is you
                    C (D)              Em (F#m)
tonight I'm letting go - about to give in

D (E) - Dsus4 (E)

Chorus:
G (A)     D (E) 
I         surrender myself
Am (Hm)            C (D)
into the arms of a beautiful stranger
G (A)     D (E)               Am (Hm)
I         surrender myself to you
   C (D)
to you

           G (D)      D (E)   -   Am (Hm)   -   C (D)    
Who really loves me
            G (D)      D (E)   -   Am (Hm)   -   C (D)    
you  really love me
             G (D)      D (E)   -   Am (Hm)   -   C (D)    
My beautiful stranger
            G (D)    D (E)   -  Am(Hm)      -        C (D)    
you really love me - like I     love                 you



Outro (Play it twice):

e-|---0-----|---0----|---0----|---0----|---0----|---0----|---0---|
B-|---12----|---10---|---9----|---5----|---3----|---1----|---5---|
G-|---11----|---11---|---10---|---6----|---4----|---2----|---6---|
D-|---12----|---12---|---11---|---7----|---5----|---3 ---|---7---|
A-|---0-----|---0----|---0----|---0----|---0----|---0----|---0---|
E-|---------|--------|--------|--------|--------|--------|-------|

            
            
Suggest correction
Creating personal tab
Creating personal tab
You can edit any tab online and save it as your Personal.

You can edit, replace or remove any tab part or add personal notes – all changes will be seen only by you.

Personal tabs can be accessed anytime from any device, even offline.
Learn more »
comments
print report bad tab
4 comments total. Showing first comments.
+1 reply
nvie 31 Feb 14, 2005 07:00 PM

I'm afraid the intro and outro tabs are wrong:
(I guess you miscalculated the finger positions due to the capo.)
These chords are right (relative to the capo on the 2nd fret):

e-|---0-----|---0----|---0---|---0----|---0----|---0----|---0---|
B-|---10----|---8----|---7---|---5----|---3----|---1----|---5---|
G-|---9-----|---9----|---8---|---6----|---4----|---2----|---6---|
D-|---10----|---10---|---9---|---7----|---5----|---3 ---|---7---|
A-|---0-----|---0----|---0---|---0----|---0----|---0----|---0---|
E-|---------|--------|-------|--------|--------|--------|-------|

Furthermore, I believe that, after the first repetition of this line, the next chord goes like this:

e-|---0-----|
B-|---10----|
G-|---9-----|
D-|---10----|
A-|---0-----|
E-|---0-----|

I.e.: the bass-note on the low E-string is played, also.
These are just my 2 cents, great song and good tab!

0 reply
xpErt-Kasper 10 Mar 13, 2005 07:00 PM

I think it is a damn good tab ! (And a good song too) five stars from here :D


Play hard, go pro :)

0 reply
Yadoozz 102 Feb 19, 2006 10:13 AM

Well, looks like nvie posted what I wanted to say... Otherwise 100 % right... (If you can say that...)

guest
Wanna post a correction for this tab? Suggest correction