Oops, an error
Loading. Please wait.

I Surrender chords

version 3
version 3

Whole song

by Saybia
36,282 views 144 this week
7 commentsread comments
1 2 3 4 5
x 20
add to favorites
×
Save as Personal and add changes to this tab that will be seen only by you. Learn more ›
×
You can save this tab as Personal to edit and correct it or add notes. All changes will be seen only by you. Learn more »
launch autoscroll
font size
0
reset
transpose
0
reset
display chords
guitar tuner
edit
Autoscroll
slow
fast
+/-
esc
set tempo
stop
Strumming
There is no strumming pattern for this song yet. and get +5 IQ
Saybia - I surrender

Standard Tuning.
Capo 2nd fret.
Remember its with capo 2nd fret so of course you will have to go 2 frets up so 
when its on 10th fret its really 12th fret, but when you got your capo on its really 10th. 
Vincent Stead.

Chords :

    Am        C         G         D       
e|--0--     --0--     --3--     --2--|   
B|--1--     --1--     --3--     --3--|    
G|--2--     --0--     --0--     --2--|    
D|--2--     --2--     --0--     --0--|    
A|--0--     --3--     --2--     -----|    
E|-----     -----     --3--     -----|    


[Intro]
                                                                       / x8 
e|----0--0--0--0----0----0----0----0----0--0--0--0--0--0--0----0---0----0-|
B|---10-10-10--8----8----7----7----5----5--5--5--3--3--3--1----1---5----5-|
G|----9--9--9--9----9----8----8----6----6--6--6--4--4--4--2----2---6----6-| 
D|---10-10-10-10---10----9----9----7----7--7--7--5--5--5--3----3---7----7-| 
A|------------------------------------------------------------------------|
E|------------------------------------------------------------------------|

e|-0--0--0--0----0----0----0----0----0--0--0--0--0--0--0----0---0---------|
B|10-10-10--8----8----7----7----5----5--5--5--3--3--3--1----1---5---------|
G|-9--9--9--9----9----8----8----6----6--6--6--4--4--4--2----2---6---------| 
D|10-10-10-10---10----9----9----7----7--7--7--5--5--5--3----3---7---------| 
A|------------------------------------------------------------------------|
E|------------------------------------------------------------------------|

[Verse]
Am                                   C
   A million suns are glowing in the night
                G
Everything is quiet
                   D
Except for all the voices in my head
               Am
That say your name
                      C
Tonight I'm letting go
               G         D          D
About to give in

[Chorus]
G    D              
   I surrender myself
Am                 C
Into the arms of a beautiful stranger
G    D                       Am   C
   I surrender myself to you - to you
G    D
   I surrender myself
Am                 C
Into the arms of a beautiful stranger
Am                          Am    C       C
   I surrender myself to you - to you

[Verse]
Am                                 C
  There's only one bridge left for me
                   G
My heart is almost free
                D
Beautiful by my side
                           Am
But all I think about is you
                          C
And tonight I'm letting go
                G           D           
About to give in

[Chorus]
G    D              
   I surrender myself
Am                 C
Into the arms of a beautiful stranger
G    D                       Am    C
   I surrender myself to you  to you
G    D
   I surrender myself
Am                 C
Into the arms of a beautiful stranger
G    D                      Am     C       
   I surrender myself to you - to you    


G    D              
   I surrender myself
Am                 C
Into the arms of a beautiful stranger

G    D                     Am    C
   I surrender myself to youuuuu 

            G        D        Am         C
Who really loves me
            G        D        Am         C
You really love me
           G        D        Am         C
My beautiful stranger
            G        D        Am         C
You really love me like I love you

[Ending]                                                                  
                                                                       / x8 
e|----0--0--0--0----0----0----0----0----0--0--0--0--0--0--0----0---0----0-|
B|---10-10-10--8----8----7----7----5----5--5--5--3--3--3--1----1---5----5-|
G|----9--9--9--9----9----8----8----6----6--6--6--4--4--4--2----2---6----6-| 
D|---10-10-10-10---10----9----9----7----7--7--7--5--5--5--3----3---7----7-| 
A|------------------------------------------------------------------------|
E|------------------------------------------------------------------------|

e|-0--0--0--0----0----0----0----0----0--0--0--0--0--0--0----0---0---------|
B|10-10-10--8----8----7----7----5----5--5--5--3--3--3--1----1---5---------|
G|-9--9--9--9----9----8----8----6----6--6--6--4--4--4--2----2---6---------| 
D|10-10-10-10---10----9----9----7----7--7--7--5--5--5--3----3---7---------| 
A|------------------------------------------------------------------------|
E|------------------------------------------------------------------------|

            
            
Suggest correction
Creating personal tab
Creating personal tab
You can edit any tab online and save it as your Personal.

You can edit, replace or remove any tab part or add personal notes – all changes will be seen only by you.

Personal tabs can be accessed anytime from any device, even offline.
Learn more »
comments
print report bad tab
7 comments total. Showing first comments.
+1 reply
Sebas123 10 Feb 07, 2010 01:27 AM

Instead of the story you're telling above the tab, try using:

Chords are relative to capo,

it's a shorter way to say exactly the same and everybody will understand

0 reply
Master tapper 10 Apr 15, 2010 02:19 PM

except danish people, they are incredibly bad at speaking and understanding it, trust me.

0 reply
xStin 10 Jan 28, 2011 03:36 AM

great tab (:
@Master tapper: Danish people are great at english! both speaking, writing and understanding, thank you very much!
With love - The Danish girl!

guest
Wanna post a correction for this tab? Suggest correction