Oops, an error
Loading. Please wait.

Watch Me Bleed Acoustic chords

487 views 6 this week
2 commentsread comments
1 2 3 4 5
x 4
add to favorites
×
Save as Personal and add changes to this tab that will be seen only by you. Learn more ›
×
You can save this tab as Personal to edit and correct it or add notes. All changes will be seen only by you. Learn more »
launch autoscroll
font size
0
reset
transpose
0
reset
simplify chords
display chords
guitar tuner
edit
Autoscroll
slow
fast
+/-
esc
set tempo
stop
Strumming
There is no strumming pattern for this song yet. and get +5 IQ
Chords:

 Dsus2  Gadd9 Asus 
e|-----|-----|-----|
B|--3--|--3--|--3--|
G|--2--|--2--|--2--|
D|-----|--0--|--2--|
A|-----|--0--|-----|
E|-----|--3--|-----|

"Picking" Part:

[Intro]

        Dsus2                Gadd9              Dsus2                Asus
e|-----------------|-----------------|-----------------|-----------------|
B|---------3-----3-|---------2-----3-|---------3-----3-|---------5-----5-|
G|-----2-----2-----|-----2-----2-----|-----2-----2-----|-----2-----2-----|
D|---0---0-----0---|---0---0-----0---|---0---0-----0---|---2---2-----2---|
A|-0---------------|-----------------|-0---------------|-0---------------|
E|-----------------|-3---------------|-----------------|-----------------|

        Dsus2                Gadd9              Dsus2                Asus  
e|-----------------|-----------------|-----------------|-----------------|
B|---------3-----2-|---------3-----3-|---------3-----3-|---------5-----3-|
G|-----2-----2-----|-----2-----2-----|-----2-----2-----|-----2-----2-----|
D|---0---0-----0---|---0---0-----0---|---0---0-----0---|---2---2-----2---|
A|-0---------------|-----------------|-0---------------|-0---------------|
E|-----------------|-3---------------|-----------------|-----------------|

[Chorus]

        Dsus2                Gadd9              Dsus2                Asus
e|-----------------|-----------------|-----------------|-----------------|
B|---------3-----3-|---------3-----3-|---------3-----3-|---------3-------|
G|-----2-----2-----|-----2-----2-----|-----2-----2-----|-----2-----2---2-|
D|---0---0-----0---|---0---0-----0---|---0---0-----0---|---2---2-----2---|
A|-0---------------|-----------------|-0---------------|-0---------------|
E|-----------------|-3---------------|-----------------|-----------------|

[Verse]

        Dsus2           Gadd9              Dsus2                Asus
e|-----------------|-----------------|-----------------|-----------------|
B|---------3-----3-|---------3-----3-|---------3-----3-|---------3-------|
G|-----2-----2-----|-----2-----2-----|-----2-----2-----|-----2-----2---2-|
D|---0---0-----0---|---0---0-----0---|---0---0-----0---|---2---2-----2---|
A|-0---------------|-----------------|-0---------------|-0---------------|
E|-----------------|-3---------------|-----------------|-----------------|

(The Chorus and Verse picking are the same though. This "picking" is the one repeated throughout the song)
 
Watch Me Bleed

[Intro]

Dsus2  Gadd9  Dm  Asus

[Verse 1]

  Dsus2                   Gadd9
The silence keeps it easy
                         Dsus2    Asus
keeps you safe for the moment.
     Dsus2
As you're walking away
Gadd9                 Dsus2    Asus
your foot steps get louder.
   Dsus2
All you needed was time
Gadd9                     Dsus2  Asus
But now time will destroy us.

[Chorus 1] 
(In this part you'll repeat the verse / chorus "picking" but the last Asus will be a chord)

 Dsus2           Gadd9            Dsus2    
It will all be over, and here we are
                         Asus            Dsus2
we're stuck inside this salted earth together.
                 Gadd9
You'll pierce my lungs
            Dsus2
my limbs go numb
              Asus
as my colors fade out.
 Dsus2             Gadd9     
You watch me bleed.
 Dsus2            Asus (Strum) 
You watch me bleed.

[Verse 2] 
(In this verse you'll use chords instead of the "picking", therefore you'll be strumming them)

Dsus2                                   Gadd9
I gave you everything to die with a smile
                                    Dsus2
all you wanted was to live for a while
                                    Asus (Hold)
you took everything but it left you empty
you can't replace me, you can't.

[Chorus 2] 

(In this chorus you'll use chords until he sings "You watch me bleed", there you'll return to the
 chorus / verse "picking")

 Dsus2         Gadd9           Dsus2
It's almost over, and here we are
                       Asus            Dsus2
we'll die inside this salted earth together.
                  Gadd9
You'll pierce my lungs
             Dsus2
my limbs go numb
              Asus
as my colors fade out.
Dsus2            Gadd9
You watch me bleed.
Dsus2            Asus
You watch me bleed.

[Bridge 1] 
(You'll return to the chords)

Dsus2               Gadd9
You'll watch me bleed.
Dsus2              Asus
You'll watch me bleed.

[Outro] 
(Same as Chorus 2, you'll use chords and repeat the verse / chorus "picking" in the part where he 
 starts singing "You watch me bleed". The last "Dsus2" is a chord you'll strum once)

Dsus2         Gadd9             Dsus2
It's almost over, and here we are
                          Am             Dsus2
we're stuck inside this salted earth together.
                  Gadd9
You'll pierce my lungs
             Dsus2
my limbs go numb
              Asus (Strum once)
as my colors fade out.
Dsus2             Gadd9
You watch me bleed.
Dsus2             Asus
You watch me bleed.
Dsus2             Gadd9
You watch me bleed.
Dsus2             Dsus2 (Strum once)
You watch me bleed.

            
            
Suggest correction
Creating personal tab
Creating personal tab
You can edit any tab online and save it as your Personal.

You can edit, replace or remove any tab part or add personal notes – all changes will be seen only by you.

Personal tabs can be accessed anytime from any device, even offline.
Learn more »
comments
print report bad tab
2 comments total.
0 reply
Lucy_Page 22 Dec 02, 2016 08:45 PM

I've been looking for this tab for a long time. Thanks!

0 reply
firextremeyt 10 Dec 04, 2016 08:41 PM

Great tab mate

guest
You may want to rate the tab now too:
select rating
Wanna post a correction for this tab? Suggest correction