Oops, an error
Loading. Please wait.

Pharaohs Bass Tab

1,673 views 1 this week
2 commentsread comments
1 2 3 4 5
1 last vote to show rating
add to favorites
launch autoscroll
font size
guitar tuner
set tempo
Help us to improve Ultimate-Guitar.com Take our survey!
Put up for a friend, fairly sure this is spot on. Very snazzy bass-line I have to say.

This is the bass-line repeated throughout the song.

G ----------------------|
D ----------------------|
A 2-0-2-4-5-5-----------|
E -------------4-4--3-3-|

Every second time the bass-line is played, the synth does something like this.

G ----------------------|
D ------------------2-2-|
A 2-0-2-4-5-5-----------|
E -------------4-4------|

So rather than going to the G note to finish off, it finishes with an E at a higher 
octave. This could be used as the guitar part.

Submitted by Tanner. Dedicated to Maxwell x
Suggest correction
Give kudos to tab author, rate the tab!
1 2 3 4 5
print report bad tab
2 comments total.
+3 reply
FoozRule 165 wrote on January 18 2013, 01:58 pm

I'd say it's more like this.

G ----------------------|
D ----------------------|
A 3-1-3-5-6-6-----------|
E -------------4-4--3-3-|

+1 reply
sbaxter675 87 wrote on September 25 2014, 04:11 pm

I think FoozRule is a bit closer. Cheers for putting it up though.

You may want to rate the tab now too:
select rating
Wanna post a correction for this tab? Suggest correction