Oops, an error
Loading. Please wait.

Haruka tab

version 2
version 2

Whole song

by Scandal
58 views 1 this week
no commentswrite comment
1 2 3 4 5
3 more votes to show rating
add to favorites
×
Save as Personal and add changes to this tab that will be seen only by you. Learn more ›
×
You can save this tab as Personal to edit and correct it or add notes. All changes will be seen only by you. Learn more »
launch autoscroll
font size
0
reset
how to read this tab
guitar tuner
edit
Autoscroll
slow
fast
+/-
esc
set tempo
stop
Author
Intro:
      Fm7   G    Em   Am     Dm7      G          Em
Itsu no hi ka kanaerareru ai wa kimi no soba ni aru
      Fm7    G   Em      Am     Dm7     G      C 
Yakusoku nante iranai yo ne haruka hanarete ite mo

e|----12-8----12-8-12--8-13-12-8-7-8----12-15-12-|
B|-10------10------------------------8-----------|
G|-----------------------------------------------|
D|-----------------------------------------------|
A|-----------------------------------------------| 
E|-----------------------------------------------|

e|-8---8----12-8-12--8-13-12-15-13-12-8-8-/10-/12-|
B|---10-10----------------------------------------|
G|------------------------------------------------|
D|------------------------------------------------|
A|------------------------------------------------| 
E|------------------------------------------------|

Fm7   G   Em   Am     Fm7  G  Am  C

Verse 1:

Fm7          G         Em        Am
Umaku ienai ya kotoba tte tayorinai ne
     Dm7          G        C
Kokoro torimodosete shimaeba raku na no ni naa

    Fm7          G           Em           Am
Oboeta bakari no uta okuru you na gikochina sa de
     Dm7       Em                Fm7      G      C
Boku wa "sayonara" no kawari ni "mata ne" to itta

e|-5-----5--3----------------------------|
B|----6-------5--565--3-----(5)---(5)----|
G|----------------------55-----5------5--|
D|---------------------------------------|
A|---------------------------------------| 
E|---------------------------------------|
 (Boku wa "sayonara" no kawari ni "mata ne" to itta)

Pre-Chorus:

     G#          Gm           F#m       Fm7
Hareta hi no sora ni omoide egakidasu yo
              Em          Am             Dm7       G
Nakimushi kakushita kimi no yasashii uso wo wasuretakunai ya

e|-------------------------------------x-----x--|
B|-------------------------------------x-----x--|
G|-------------------------------------x-----x--|
D|-----3--6-(5)-(4)-(3)-2--------------10----12-|
A|---3---------------------------------x-----x--| 
E|-4---------------------------345-----x-----x--|



CHORUS:

    Fm7    G    Em     Am     Dm7      G        C
Namida nante nagasanai yo "owari" ja nai "hajimari" sa
      Fm7  G     Am    Em     Dm7       G      Am
Samishisa wo wakeatte mo mae ni susumenai kara
   Fm7    G    Em     Am     Dm7      G        C
Nande darou yasashisa tte itsumo ato de wakaru mono
     Fm7     G#m    Am    A#     Dm7     G      Am
Kimi to ita hi ga kagayaite boku wa aruite yukeru


Fm7   G   Em   Am     Fm7  G  Am  C



Verse 2:

    Fm7         G            Em            Am
Donna mainichi mo genjitsumi wo mashite yuku ne
      Dm7        G        C
Ookina udedokei ni oware suriru nuketeku

       Fm7             G           Em           Am
Mezashita gooru wa me ni mieru you na mono ja nai kedo
   Dm7    Em                Fm7      G  Am    C
Koronde tsuita kizuato wa boku, jishin sa

e|-5-----5--3----------------x----|
B|----6-------5--565--3------x----|
G|----------------------55---x----|
D|---------------------------12---|
A|---------------------------x----| 
E|---------------------------x----|
(Koronde tsuita kizuato wa boku, jishin sa)

Chorus:
    Fm7      G    Em     Am       Dm7   G        C
Yume wa itsumo hakanai mono kaze ga fukeba kie sou de
    Fm7      G     Am      Em     Dm7   G      Am
Makenai you ni kesanai you ni daiji ni motte itai
   Fm7    G    Em     Am     Dm7      G    C
Namida nante niawanai yo donna toki mo warattete
     Fm7     G#m    Am    A#      Dm7     G      A#
Kimi no shitteru boku de iru yo haruka hanarete ite mo

Solo:
A#      C      G#      Dm7 G   C

e|------------------------------------------------------------------|
B|-10-10-1110-1110-1110-1110-10-1313-10-1313-15-1313-15-1313-15-1313|
G|------------------------------------------------------------------|
D|------------------------------------------------------------------|
A|------------------------------------------------------------------| 
E|------------------------------------------------------------------|

e|-x----x---x---x------------------------20-|
B|-16--15--13--11----------15-13-15-13------|
G|-x---x---x---x----(12)--------------------|
D|-13--12-10---8----------------------------|
A|------------------------------------------| 
E|------------------------------------------|

Bridge:
    G#          Gm           F#m       Fm7
Akegata no hoomu nandaka setsunaku naru
       Em          Am             Dm7             G
Ano hi hanashita kimi no te no nukumori ga wasurerarenai yo

e|-------------------------------------x-----x--|
B|-------------------------------------x-----x--|
G|-------------------------------------x-----x--|
D|-----3--6-(5)-(4)-(3)-2--------------10----12-|
A|---3---------------------------------x-----x--| 
E|-4---------------------------345-----x-----x--|


Chorus:
    Fm7      G    Em     Am       Dm7   G        C
Namida nante nagasanai yo "owari" ja nai "hajimari" sa
    Fm7      G     Am      Em     Dm7   G      Am
Yakusoku nante iranai yo ne zutto omotteru kara
   Fm7    G    Em     Am     Dm7      G    C
Itsu no hi ka kanaerareru ai wa kimi no soba ni aru
     Fm7     G#m    Am    A#      Dm7     G      Am
Kitto kanarazu mata deaeru haruka hanarete ite mo
   

Outro:
   Fm7    G   Em         Am     Dm7      G       C 
Kawari yuku toki no naka de ano hi no kimi de ite ne

e|----12-8----12-8-12--8-13-12-8-7-8----12-15-12-|
B|-10------10------------------------8-----------|
G|-----------------------------------------------|
D|-----------------------------------------------|
A|-----------------------------------------------| 
E|-----------------------------------------------|

e|-8---8----12-8-12--8-13-12-15-13-12-8-8-/10-/12-|
B|---10-10----------------------------------------|
G|------------------------------------------------|
D|------------------------------------------------|
A|------------------------------------------------| 
E|------------------------------------------------|

Fm7   G   Em   Am     Fm7  G  Am  C 
Fm7   G   Em   Am     Fm7  G  Am  C 


Fm7    G    Em



************************************

| (n)  Bend 
| x    Dead note

************************************
Suggest correction
Creating personal tab
Creating personal tab
You can edit any tab online and save it as your Personal.

You can edit, replace or remove any tab part or add personal notes – all changes will be seen only by you.

Personal tabs can be accessed anytime from any device, even offline.
Learn more »
Give kudos to tab author, rate the tab!
1 2 3 4 5
comments
print report bad tab
guest
You may want to rate the tab now too:
select rating
Wanna post a correction for this tab? Suggest correction